Michael Jackson - Beat It Chords & Tabs

 

Beat It Chords & Tabs

Michael Jackson Chords & Tabs

Version: 3 Type: Bass Tab 0 ratings
1 star 2 stars 3 stars 4 stars 5 stars
comments

Beat It Bass Tab

[-------0--------|--------------0--|----------------0|-----------------]
[---------2--4---|2-0--0----------2|--4--2-0---------|-2--4--2-0--0----]
[-----2----------|------------2----|--------------2--|-----------------]
[-0-3------------|--------0-3------|----------0-3----|-----------------]
[ Tab from: http://www.guitartabs.cc/tabs/m/michael_jackson/beat_it_btab_ver_3.html ]
                          verse
[-------0--------|-----------------|-----------------|-----------------]
[---------2--4--2|-0---------------|-----------------|-----------------]
[-----2----------|--------7-7--7---|5--5--5----7-7--7|---5--5--5-------]
[-0-3------------|----0------------|-----------------|-----------------]
                       r        r          rest      rest
              
[----------------|-----------------|-----------------|-----------------]
[----------------|-----------------|-----------------|-----------------]
[-3--3---3----5--|5--5----7-7---7--|5--5---5------7-7|--7----5--5---5--]
[----------------|-----------------|-----------------|-----------------]
          r           rest       r          rest     r   rest       

[----------------|-----------------|-----------------|-----------------]
[----------------|-----------------|-----------------|-----------------]
[-7-7---7----5--5|--5---3-3---3---5|-5---5---7-7---7-|-5-5--5----------]
[----------------|-----------------|-----------------|-----------------]
     r   rest    r   r         r          r         r        r

[-------0--------|----------------0|----------------|---0--------------]
[---------2--4---|2-0--0-----------|-2--4---2-0-----|-----2--4---2-0--0]
[-----2----------|--------------2--|----------------|-2----------------]
[-0-3------------|----------0-3----|-------------0-3|------------------]
Comments