Michael Buble - Home Chords & Tabs

 

Home Chords & Tabs

Michael Buble Chords & Tabs

Version: 1 Type: Tab 1 rating
1 star 2 stars 3 stars 4 stars 5 stars
comments

Home Tab

   
--------------------
Michael Buble - Home
--------------------

this song just makes u think about 'wat could have been'. ツ


Intro: (0:02)         (0:08)
|---------------------------------------------------------|
|---------------------------------------0-----------------|
|------------------------------------0-----2p0------------|
|---7s9-7---5s7-5--------2-5-4--0h2------------4-5--------|
|-5-------5-----------------------------------------------|
|---------------------------------------------------------|

G
 
D/F#                  
 
Em              D 
 
                C   Cadd9

  D   G  D


G
 
D/F#
 
Em                 D
 
                 C   Cadd9 
 
      D          G         
 


              C
 
       Em

           Asus4       A
 
                C             D

|-------12-10----------| 
|-10s12-------10s12----|
|-------------------12-|
|----------------------|
|----------------------|
|----------------------|
              C  

                          Em

              F

                D   Dsus D 

|-----------------|
|-----------------|
|-2h4-2p0----0----|
|---------4-------|
|-----------------|
|-----------------|

G
 
D/F#
 
Em             D  
 
                Cadd9
 
         D            G     D 
 

|-7h8p7------7---|
|--------8-7-----|
|----------------|
|----------------|
|----------------|
|----------------|

          G  D/F# Em Em7

|----------10-------------10s12--|
|-------12-------------12--------|
|-12-11----------12-11-----------|
|--------------------------------|
|--------------------------------|
|--------------------------------|
             C                  Em 

             G    D

[ Tab from: http://www.guitartabs.cc/tabs/m/michael_buble/home_tab.html ]
Guitar Solo: (1:48)
|--------10~--10-12-12s14\-----10-12----------------------|
|---------------------------12-------10s12---10-----------|
|-11-12-----------------------------------------12=s11----|
|---------------------------------------------------------|
|---------------------------------------------------------|
|---------------------------------------------------------|

|---------------------------------------------15-14---------|
|----10------------------------15-------------------15------|
|-12----11-----/12--/12-----------14s16-14-12----------14---|
|----------12--/14--/14--12---------------------------------|
|---------------------------14------------------------------|
|-----------------------------------------------------------|

|----------------------------------------15---------------|
|-15---------------------15-----------15----15s17---------|
|-----14s16--------12-14----14s16-------------------------|
|---------------------------------------------------------|
|---------------------------------------------------------|
|---------------------------------------------------------|

      C                                  

        Em

                 Asus4           A

                    C           D

      C 

     Em

             F 

                 D Dsus D

|-10s12s10-------------|
|-10s12s10-10s12s12----|
|-----------9s11s11-12-|
|-------------------12-|
|----------------------|
|----------------------|

G
  
D/F# 
 
Em                    D
 
                C   Cadd9
 
 D         G     D   
 
|-------12----10--|
|-10s12----12-----|
|-----------------|
|-----------------|
|-----------------|
|-----------------|

G
 
D/F# 
 
|-----15=s17--15-----|
|-/15----------------|
|--------------------|
|--------------------|
|--------------------|
|--------------------|

 F             
 
            C   Cadd9 
 
       D         G        D
 


         G  D/F# Em Em7

            C             C

  D        G     D

         G  D/F# Em Em7

           C  

                D 

                 G      




Chords:
G:    320033
D/F#: 2x0232
Em:   022000
D:    xx0232
C:    x32010
A:    x02220
F:    133211
Dsus: xx0233
Bm:   x24432 

kid©2006™
Comments