Michael Angelo - Speed Kills Chords & Tabs

 

Speed Kills Chords & Tabs

Michael Angelo Chords & Tabs

Version: 2 Type: Tab 0 ratings
1 star 2 stars 3 stars 4 stars 5 stars
comments

Speed Kills Tab

   
Michael Angelo
Speed Kills

Tuning (E A D G B E)

 Intro
  Q=140
          Dm
 4/4
          Gtr I
  H.       S  S  T  T  T  T    W
|------------------------13-|-17--------|
|---------------------15----|-----------|
|------------------14-------|-----------|
|---------------15----------|-----------|
|---------12-17-------------|-----------|
|---------------------------|-----------|

   Q      +E   E  +Q    E  E    A  Q.    S  S  H
|-17b18r=(17)-15-(15)--18-15-|-15h17----------------|
|----------------------------|----------15-15-15----|
|----------------------------|----------------------|
|----------------------------|----------------------|
|----------------------------|----------------------|
|----------------------------|----------------------|

   Q    A   E  E  +H        +E    A   E  H.         A  E  Q.    E  Q.
|------------------------|-----------------------|----------------------|
|-15--(15)s13-13-(13)----|-(13)-(13)s10-10-------|-10h13-------13-------|
|------------------------|-----------------------|-------12-------10----|
|------------------------|-----------------------|----------------------|
|------------------------|-----------------------|----------------------|
|------------------------|-----------------------|----------------------|

   E Q  +S     +S  Q.    E   S  S E   E       E   +H
|--------------------------|-----------------------------|
|-13-----------------------|-----------------------------|
|----9--(9)b10-(9)S7-------|-----------------------------|
|-----------------------10p|=7---------------------------|
|--------------------------|---10p8-[10]b12-[10]-(10)----|
|--------------------------|-----------------------------|

        |--3--|
   +E   S  S  S  H    Q    +E  S  S  Q.    Q.
|------------------------|----------------------|
|------------------------|----------------------|
|---------------10----9--|-(9)-9-10-12----14----|
|------10h12h14----------|----------------------|
|-(10)-------------------|----------------------|
|------------------------|----------------------|
                          2/4

               |-3-|   |-----6------|  |-----6------|
   H     Q.    S S S   S S S   S  S S  S S  S  S  S S
|------------------6-|-9p6----------9-12p9----------9--|
|-------13-------8---|-----8-----11--------11----11----|
|-15----------/9-----|-------/12--------------12-------|
|--------------------|---------------------------------|
|--------------------|---------------------------------|
|--------------------|---------------------------------|
 4/4
               ~~~~~~~~                ~~~
   E  +E      +Q.        +S   S E E   +Q    E E +Q    E E
|-12-(12)b13-(12)pb13---(12)-10-8-8-|-(8)--10--------10---|
|-----------------------------------|---------8-(8)-------|
|-----------------------------------|-------------------9-|
|-----------------------------------|---------------------|
|-----------------------------------|---------------------|
|-----------------------------------|---------------------|

  +E  +S     +S  Q  +E   E S  S E     E       E   +H.
|---------------------------------|----------------------|
|---------------------------------|----------------------|
|-(9)-(9)b10-(9)-7--(7)-----------|----------------------|
|-----------------------10p7------|----------------------|
|----------------------------10p8-|-[10]b12-[10]-(10)----|
|---------------------------------|----------------------|

   PM|                  ~~~~~~~~~
   E  E  E  E  E  E  E  E    +E   E  E  E  E  E  E     +E
|-------------------------|--------------------------------|
|----------------15----13-|-(13)-------13-------13b15-(13)-|
|-------------------14----|--------------------------------|
|-------14-15-14----------|------15-14----15-14------------|
|----12-------------------|--------------------------------|
|-10----------------------|--------------------------------|
   ~~                                     ~~
                                                     |--3--|
   H     +E    E  +Q      +E      +S   S  H     +E   S  S  S
|----------------------|--------------------------------------|
|-13----(13)-----------|----------------------------17-18-20--|
|------------/12-(12)--|-(12)b14-(12)p10----------------------|
|----------------------|-----------------12----(12)-----------|
|----------------------|--------------------------------------|
|----------------------|--------------------------------------|

   |------6-------|  |------6-------|  |--3--|     |------6-------|
   S  S  S  S  S  S  S  S  S  S  S  S  S  S  S  E  S  S  S  S  S  S
|-17----------------17----------------17----------20-18-17----------|
|----20-18-17-18-20----20-18-17-18-20----20-18-17----------20-18-17-|
|-------------------------------------------------------------------|
|-------------------------------------------------------------------|
|-------------------------------------------------------------------|
|-------------------------------------------------------------------|

   |------6-------|  |------6-------|  |------6-------|  |------6-------|
   S  S  S  S  S  S  S  S  S  S  S  S  S  S  S  S  S  S  S  S  S  S  S  S
|-22-20-18----------20-18-17----------18-17-15----------20-18-17----------|
|----------22-20-18----------20-18-17----------18-17-15----------20-18-17-|
|-------------------------------------------------------------------------|
|-------------------------------------------------------------------------|
|-------------------------------------------------------------------------|
|-------------------------------------------------------------------------|

   |------6-------|  |------6-------|  |------6-------|  |------6-------|
   S  S  S  S  S  S  S  S  S  S  S  S  S  S  S  S  S  S  S  S  S  S  S  S
|-20-18-17----------------------------------------------------------------|
|----------20-18-17-------------------------------------------------------|
|-------------------17-15-14----------15-14-12----------------------------|
|----------------------------17-15-14----------15-14-12-------------------|
|-------------------------------------------------------15-13-12----------|
|----------------------------------------------------------------15-13-12-|

   |------6-------|  |------6-------|  |------6-------|  |------6-------|
   S  S  S  S  S  S  S  S  S  S  S  S  S  S  S  S  S  S  S  S  S  S  S  S
|--------------------------------------------------------------------------|
|----------------------------------------------------------------18-17-15--|
|-------------------15-14-12----------17-15-14----------17-15-14-----------|
|----------15-14-12----------15-14-12----------17-15-14--------------------|
|-15-13-12-----------------------------------------------------------------|
|--------------------------------------------------------------------------|

              |--3--|               |--3--|
   H     +E   S  S  S  E  E    +E   S  S  S  E  E  E  E  E  E
|-17----(17)-15h17p15----15-|-(15)-13h15p13-12-13-12----------|
|---------------------18----|------------------------15-13----|
|---------------------------|------------------------------14-|
|---------------------------|---------------------------------|
|---------------------------|---------------------------------|
|---------------------------|---------------------------------|

   ~~~~~                                ~~~~
                                                    |--3--|
   H.         S     +S   E    E     E  +H      +E   S  S  S
|--------------------------|----------------------------------|
|-15b17------15b17-(15)-13-|-15b17-15-(15)----(15)-------13---|
|--------------------------|--------------------------14------|
|--------------------------|-----------------------15---------|
|--------------------------|----------------------------------|
|--------------------------|----------------------------------|

                                         |--3--|
   Q.    Q.    E  E    +Q.    a  Q   Q   S  S  S
|-12----------------|----------------------------|
|-------15----13-13-|-(13)--------------------13-|
|-------------------|--------14s12--10-----14----|
|-------------------|-------------------15-------|
|-------------------|----------------------------|
|-------------------|----------------------------|

                                                          |--3--|
   Q.    Q.    E  a  E    +E   E E  S S  S  S  S  S  a E  S  S  S
|-12-------------------|--------------------------------------------|
|-------15----13-------|---------------------------------------13---|
|----------------14s12-|-(12)-10-9-10-9---------------------14------|
|----------------------|----------------12-10------------15---------|
|----------------------|----------------------12-10-10s8------------|
|----------------------|--------------------------------------------|

                                                        ~~~~~~~~~~
                                                                   |--3--|  |------6-------|
   Q.    Q.    E  E    +Q.    a  Q   E  E     +S   S    H     +E   S  S  S  S  S  S  S  S  S
|-12----------------|--------------------------------|---------------------------------------|
|-------15----13-13-|-(13)---------------------------|---------------------------------------|
|-------------------|--------14s12--10h12b14-(12)p10-|-12----(12)----------------------------|
|-------------------|--------------------------------|---------------------------14-15-17-15-|
|-------------------|--------------------------------|------------------14-15-17-------------|
|-------------------|--------------------------------|------------15-17----------------------|

   |------6-------|  |------6-------|  |------6-------|  |------6-------|
   S  S  S  S  S  S  S  S  S  S  S  S  S  S  S  S  S  S  S  S  S  S  S  S
|-------------------------------------------------------------------------|
|----------------------------------------------------------------15-18-17-|
|----------------------------14-17-16-14----------------14-16-17----------|
|-14----------------14-15-17-------------17-15-14-15-17-------------------|
|----17-15-14-15-17-------------------------------------------------------|
|-------------------------------------------------------------------------|

   |------6-------|  |------6-------|  |------6-------|  |------6-------|
   S  S  S  S  S  S  S  S  S  S  S  S  S  S  S  S  S  S  S  S  S  S  S  S
|----------------------------15-20-19-17----------------17-19-20----------|
|-15----------------15-17-18-------------20-18-17-18-20----------18-20-22-|
|----17-16-14-16-17-------------------------------------------------------|
|-------------------------------------------------------------------------|
|-------------------------------------------------------------------------|
|-------------------------------------------------------------------------|

            TP    ~~~
   |--3--|              |--3--|
   S  S  S  Q.    Q.    S  S  S
|-18-20-22-22----22----------13---|
|-------------------------15------|
|----------------------14---------|
|---------------------------------|
|---------------------------------|
|---------------------------------|

 Arpeggio Theme
   |------6-------|  |------6-------|  |------6-------|  |------6-------|
   S  S  S  S  S  S  S  S  S  S  S  S  S  S  S  S  S  S  S  S  S  S  S  S
|-17p13----------13-17p13----------13-17p13----------13-17p13----------13-|
|-------15----15----------15----15----------15----15----------15----15----|
|----------14----------------14----------------14----------------14-------|
|-------------------------------------------------------------------------|
|-------------------------------------------------------------------------|
|-------------------------------------------------------------------------|

   |------6-------|  |------6-------|  |------6-------|  |------6-------|
   S  S  S  S  S  S  S  S  S  S  S  S  S  S  S  S  S  S  S  S  S  S  S  S
|-18p13----------13-18p13----------13-15p10----------10-15p10----------10--|
|-------15----15----------15----15----------11----11----------11----11-----|
|----------15----------------15----------------12----------------12--------|
|--------------------------------------------------------------------------|
|--------------------------------------------------------------------------|
|--------------------------------------------------------------------------|

   |------6-------|  |-------6-------|  |----6-----|  |------6-------|
   S  S  S  S  S  S  S  S  S   S  S  S  S E  S  S  S  S  S  S  S  S  S
|-17p13----------13-17p13-----------17-22---------13-17p13----------13-|
|-------15----15----------15-----18------------15----------15----15----|
|----------14----------------/19------------14----------------14-------|
|----------------------------------------------------------------------|
|----------------------------------------------------------------------|
|----------------------------------------------------------------------|

   |------6-------|  |------6-------|  |------6-------|  |------6-------|
   S  S  S  S  S  S  S  S  S  S  S  S  S  S  S  S  S  S  S  S  S  S  S  S
|-18p13----------13-18p13----------13-15p10----------10-15p10----------10---|
|-------15----15----------15----15----------11----11----------11----11------|
|----------15----------------15----------------12----------------12---------|
|---------------------------------------------------------------------------|
|---------------------------------------------------------------------------|
|---------------------------------------------------------------------------|

   |------6-------|  |-------6-------|  |------6-------|     |--3--|
   S  S  S  S  S  S  S  S  S   S  S  S  S  S  S  S  S  S  E  S  S  S
|-17p13----------13-17p13-----------17-22p17----------------------13-|
|-------15----15----------15-----18----------18----------------15----|
|----------14----------------/19----------------19----------15-------|
|--------------------------------------------------19----------------|
|-----------------------------------------------------20p17----------|
|--------------------------------------------------------------------|

   |------6-------|  |------6-------|  |----6----|  |----6----|
   S  S  S  S  S  S  S  S  S  S  S  S  e.  S  S  S  e.  S  S  S
|-18p13----------13-18p13----------10-15--------13-18--------13--|
|-------15----15----------15----11-----------15-----------15-----|
|----------15----------------12-----------15-----------14--------|
|----------------------------------------------------------------|
|----------------------------------------------------------------|
|----------------------------------------------------------------|

   |------6-------|  |-------6-------|  |------6-------|     |--3--|
   S  S  S  S  S  S  S  S  S   S  S  S  S  S  S  S  S  S  E  S  S  S
|-17p13----------13-17p13-----------17-22p17----------------------13-|
|-------15----15----------15-----18----------18----------------15----|
|----------14----------------/19----------------19----------15-------|
|--------------------------------------------------19----------------|
|-----------------------------------------------------20p17----------|
|--------------------------------------------------------------------|

 5/4
   |------6-------|  |------6-------|  |----6----|  |----6----|  |------6-------|
   S  S  S  S  S  S  S  S  S  S  S  S  e.  S  S  S  e.  S  S  S  S  S  S  S  S  S
|-18p13----------13-18p13----------10-15--------13-18--------10-15p10-------------|
|-------15----15----------15----11-----------15-----------11----------11----------|
|----------15----------------12-----------15-----------12----------------12-------|
|---------------------------------------------------------------------------12----|
|------------------------------------------------------------------------------13-|
|---------------------------------------------------------------------------------|

 4/4
   |------6-------|  |------6-------|  |------6-------|  |------6-------|
   S  S  S  S  S  S  S  S  S  S  S  S  S  S  S  S  S  S  S  S  S  S  S  S
|----------------10-15p10----------------------------12-17p12-------------|
|-------------11----------11----------------------13----------13----------|
|----------12----------------12----------------14----------------14-------|
|-------12----------------------12----------14----------------------14----|
|-10h13----------------------------13-12h15----------------------------15-|
|-------------------------------------------------------------------------|

  |------6-------|  |------6-------|  |-----6------|  |------6-------|
  S  S  S  S  S  S  S  S  S  S  S  S  S S  S  S  S S  S  S  S  S  S  S
|---------------10-13p10----------10-12p9----------9-15p12----------12----|
|------------11----------11----11---------11----11---------14----14-------|
|---------10----------------10---------------12---------------15----------|
|------12-----------------------------------------------------------------|
|-8h13--------------------------------------------------------------------|
|-------------------------------------------------------------------------|

   |------6-------|  |------6-------|  |------6-------|  |------6-------|
   S  S  S  S  S  S  S  S  S  S  S  S  S  S  S  S  S  S  S  S  S  S  S  S
|-15p11----------11-15p11----------11-17p13----------13-17p13----------13-|
|-------13----13----------13----13----------15----15----------15----15----|
|----------12----------------12----------------14----------------14-------|
|-------------------------------------------------------------------------|
|-------------------------------------------------------------------------|
|-------------------------------------------------------------------------|

   |------6-------|  |------6-------|  |------6-------|  |------6-------|
   S  S  S  S  S  S  S  S  S  S  S  S  S  S  S  S  S  S  S  S  S  S  S  S
|-18p15----------15-18p15----------15-20p17----------17-20p17----------17--|
|-------16----16----------16----16----------18----18----------18----18-----|
|----------15----------------15----------------17----------------17--------|
|--------------------------------------------------------------------------|
|--------------------------------------------------------------------------|
|--------------------------------------------------------------------------|

                                                ~~~~                     ~~~~~~~~~
   |------6-------|   |------6-------|
   S  S  S  S  S  S   S  S  S  S  S  S  Q      +Q      +E   E      E  E  H
|-20p17----------17-17p14----------14-17b18--(17)--|-(17)-17pb18r15-14-14b15----|
|-------19----19-----------16----16-----------------|----------------------------|
|----------20-----------------17--------------------|----------------------------|
|---------------------------------------------------|----------------------------|
|---------------------------------------------------|----------------------------|
|---------------------------------------------------|----------------------------|

                                 Q=150                Q=160
 ~~~~~~~~~~~                      T
             |--------7--------|  |--------7--------|  |--------7--------|
   +Q        S  S  S  S  S  S  S  S  S  S  S  S  S  S  S  S  S  S  S  S  S
|-(14)pb15r================10h15-18p15p10----------------------------10h15--|
|-----------------------11----------------11----------------------11--------|
|--------------------12----------------------12----------------12-----------|
|-----------------12----------------------------12----------12--------------|
|-----------10h13----------------------------------13-10h13-----------------|
|---------------------------------------------------------------------------|

  Q=170                Q=180                Q=190                Q=200
   T                                         T
   |--------7--------|  |--------7--------|  |--------7--------|
   S  S  S  S  S  S  S  S  S  S  S  S  S  S  S  S  S  S  S  S  S  Q
|-18p15p10----------------------------10h15-18p15p10-----------------|
|----------11----------------------11----------------11--------------|
|-------------12----------------12----------------------12-----------|
|----------------12----------12----------------------------12--------|
|-------------------13-10h13----------------------------------13p10--|
|--------------------------------------------------------------------|

 Fast Tempo Solo
   S  S  S  S  S  S  S  S  S  S  S  S  S  S  S  S
|-14p11----------------11-17p14----------------14-|
|-------13----------13----------16----------16----|
|----------14-11h14----------------17-14h17-------|
|-------------------------------------------------|
|-------------------------------------------------|
|-------------------------------------------------|

   S  S  S  S  S  S  S  S  S  S  S  S  S  S  S  S
|-20p17----------------17-17p14----------------14-|
|-------19----------19----------16----------16----|
|----------20-17h20----------------17-14h17-------|
|-------------------------------------------------|
|-------------------------------------------------|
|-------------------------------------------------|

   S  S  S  S  S  S  S  S  S  S  S  S  S  S  S  S
|-17p14----------14-14p11----------11-17p14-------|
|-------16----16----------13----13----------16----|
|----------17----------------14----------------17-|
|-------------------------------------------------|
|-------------------------------------------------|
|-------------------------------------------------|

                           ~~
   S  S  S  S  S  S  S  S  Q   E  E
|----14-14p11----------11-14---------|
|-16----------13----13-----------12--|
|----------------14-----------14-----|
|------------------------------------|
|------------------------------------|
|------------------------------------|

    ~~~~~~~                     ~~~~~~~~~~~~~~~~~
    H.          S     +S   E    H        +E       S  S  S  S  S  S
|----------------------------|----------------------------12-15-14-|
|-[15]b17------15b17-(15)-12-|-15b17----(15)pb17-12-13-15----------|
|----------------------------|-------------------------------------|
|----------------------------|-------------------------------------|
|----------------------------|-------------------------------------|
|----------------------------|-------------------------------------|

                                                     ~~~
   S  S  S  S  S  S  S  S  S  S  S  S  S  S  S  S    H.       E  E
|-12----------------------------------------------|-------------------|
|----15-13-12-------------------------------------|-------------------|
|-------------14-12-11----------------------------|-------------13----|
|----------------------14-12-10-------------------|----------15-------|
|-------------------------------14-12-10----------|-------------------|
|----------------------------------------14-12-10-|-12---------------|

   ~~~~~~~~~~~~~~~~~             ~~~~~~~~~~~~~~~~~~
   H        +E.      S  E  E    +H         +E       S  S  S  S  S  S
|----------------------------|---------------------------------------|
|-16b18----(16)pb18-16-------|---------------------------------------|
|----------------------15-15-|-(15)b17----(15)pb17----------17-18-20-|
|----------------------------|---------------------17-18-20----------|
|----------------------------|---------------------------------------|
|----------------------------|---------------------------------------|

   S  S  S  S  S  S  S  S  S  S  S  S  S  S  S  S    S  S  S  S  S  S  S  S  H
|----------18-20-21-20-18-------------------------|-------------------------------|
|-18-20-21----------------------18-20-21----------|-------------------------------|
|-------------------------20-20----------18-20-21-|-------------------------------|
|-------------------------------------------------|----------------15-18-17-15----|
|-------------------------------------------------|-------15-16-18----------------|
|-------------------------------------------------|-16-18-------------------------|

   S  S  S  S  S  S  S  S  S  S  S  S  S  S  S  S
|-------------------------------------------------|
|-------------------------------------------------|
|-------------------------------17-15-------------|
|-------------------14-15-17-18-------18-17-15-14-|
|----------13-15-16-------------------------------|
|-13-15-16----------------------------------------|
[ Tab from: http://www.guitartabs.cc/tabs/m/michael_angelo/speed_kills_tab_ver_2.html ]
   S  S  S  S  S  S  S  S  S  S  S  S  S  S  S  S    S  S  S  S  S  S  S  S  S  S  S  S  S  S  S  S
|-------------------------------------------------|-------------------------------------------------|
|-------------------------------------------------|-------------------------------------------------|
|-------------------------15-------15-17-16-17-19-|-------------15-17-20-19-17-16-15-17-16-17-18-19-|
|-15----15-17-18-15-17-18----17-18----------------|----15-17-18-------------------------------------|
|----18-------------------------------------------|-18----------------------------------------------|
|-------------------------------------------------|-------------------------------------------------|

         ~~~~~             ~~~~~~~~~~~~~~~~~~~~~      ~~~
   E  E  H        E  E     H          +E.       S  E  E
|----------------------|-[13]b15----([13])pb15p10-------|
|-16-18-------------11-|--------------------------13-13-|
|-------20b22----12----|--------------------------------|
|----------------------|--------------------------------|
|----------------------|--------------------------------|
|----------------------|--------------------------------|

 ~~~~~~     ~~~~~~~     ~~~~~~~~~~
   +Q    E  E  +Q    E  E    +E   S  S  E  E  S  S  E  E  E
|-------13----------13----|----------------------------------|
|-(13)-----11-(11)-----10-|-(10)h11p10-----------------------|
|-------------------------|------------12-10-----------------|
|-------------------------|------------------12p10----10-12--|
|-------------------------|------------------------13--------|
|-------------------------|----------------------------------|

         ~~
               |--------7--------|
   E  E  H     S  S  S  S  S  S  S
|----------------------------10h15h|
|-------------------------11-------|
|----------------------12----------|
|-------------------12-------------|
|-13-12-10----10h13----------------|
|----------------------------------|


   T                                             T
   |--------7--------|      |--------7--------|  |--------7--------|
   S  S  S  S  S  S  S  Q   S  S  S  S  S  S  S  S  S  S  S  S  S  S
|-18p15p10--------------------------------10h15h18p15p10--------------|
|----------11--------------------------11----------------11-----------|
|-------------12--------------------12----------------------12--------|
|----------------12--------------12----------------------------12-----|
|-------------------13-10--10h13----------------------------------13--|
|---------------------------------------------------------------------|

                            T
       |--------7--------|  |--------7--------|
   Q   S  S  S  S  S  S  S  S  S  S  S  S  S  S  Q
|--------------------10h15h18p15p10-----------------|
|-----------------11----------------11--------------|
|--------------12----------------------12-----------|
|-----------12----------------------------12--------|
|-10--10h13----------------------------------13-10--|
|---------------------------------------------------|

                        T
   |--------7--------|  |--------7--------|      |--------7--------|
   S  S  S  S  S  S  S  S  S  S  S  S  S  S  Q   S  S  S  S  S  S  S
|----------------10h15h18p15p10--------------------------------10h15h==|
|-------------11----------------11--------------------------11---------|
|----------12----------------------12--------------------12------------|
|-------12----------------------------12--------------12---------------|
|-10h13----------------------------------13-10--10h13------------------|
|----------------------------------------------------------------------|

                                  Q=190             Q=180
   T
   |--------7--------|
   S  S  S  S  S  S  S  H.         Q   Q   Q   Q     Q   Q   Q   Q
|-18p15p10----------------------|-------------10--|-11--10--11--13--|
|----------11-------------------|-13--12--13------|-----------------|
|-------------12----------------|-----------------|-----------------|
|----------------12-------------|-----------------|-----------------|
|-------------------13-10------|-----------------|-----------------|
|-------------------------------|-----------------|-----------------|

 Classical Solo
  Q=170
   E  E  E  E  E  E  E  E    E  E  E  E  E  E  S  S  S  S
|-------10----11-10-------|-------13----10----------------|
|----11----11-------13-11-|-10-13----13----13-11h13p11p10-|
|-12----------------------|-------------------------------|
|-------------------------|-------------------------------|
|-------------------------|-------------------------------|
|-------------------------|-------------------------------|

                     |--3--|
   E  E  E  E  E  E  S  S  S  E    E  E  E  E  E  E  S  S  S  S
|-------------------------------|-------------10----------------|
|----10-11----13-11-10h11p10----|----------10----13-11h13p11p10-|
|-12-------12----------------12-|-11----11----------------------|
|-------------------------------|----12-------------------------|
|-------------------------------|-------------------------------|
|-------------------------------|-------------------------------|

                  |--3--|
   E  E  E  E  E  S  S  S  E  E    E  E  E  E  S  S  S  S  S  S  S  S
|-------10----11-10h11p10-------|-------13----10----------------------|
|----11----11-------------13-11-|-10-13----13----13-11-10-13-12-11-10-|
|-12----------------------------|-------------------------------------|
|-------------------------------|-------------------------------------|
|-------------------------------|-------------------------------------|
|-------------------------------|-------------------------------------|

                                         ~~~~~~~
                     |--3--|
   E  E  E  E  E  E  S  S  S  E    E     E  +H.
|-------------------------------|------------------|
|----10-11----13-11-10h11p10----|------------------|
|-12-------12----------------12-|-11b12-11-(11)----|
|-------------------------------|------------------|
|-------------------------------|------------------|
|-------------------------------|------------------|

     S  S  S  S  S  S  S  S  S  S  S  S  S  S  S  S
||--------10----------11-------15-13-11--------------||
||o----11----11----13----13-------------15-13-11----o||
||--12----------14----------12-------------------14--||
||---------------------------------------------------||
||o-------------------------------------------------o||
||---------------------------------------------------||

   S  S  S  S  S  S  S  S  S  S  S  S  S  S  S  S    S  S  S  S  S  S  S  S  S  S  S  S  Q
|-------10----------11-------15-13-11-------------|------------------------------------------|
|----11----11----13----13-11----------15-13-11----|------------------------------------------|
|-12----------14-------------------------------14-|-15-14-12-14----14----14----14----14------|
|-------------------------------------------------|-------------14----12----11---------------|
|-------------------------------------------------|-------------------------------13----12---|
|-------------------------------------------------|------------------------------------------|

     S  S  S  S  S  S  S  S  S  S  S  S  S  S  S  S
||--------15----------16-------20-18-16--------------||
||o----16----16----18----18-------------20-18-16----o||
||--17----------19----------17-------------------19--||
||---------------------------------------------------||
||o-------------------------------------------------o||
||---------------------------------------------------||

   S  S  S  S  S  S  S  S  S  S  S  S  S  S  S  S    S  S  S  S  S  S  S  S  S  S  S  S  Q
|-------15----------16-------20-18-16-------------|-----------------------------------------|
|----16----16----18----18-16----------20-18-16----|-----------------------------------------|
|-17----------19-------------------------------19-|-20-19-17-19----19----19----19----19-----|
|-------------------------------------------------|-------------19----17----16--------------|
|-------------------------------------------------|-------------------------------18----17--|
|-------------------------------------------------|-----------------------------------------|

     S  S  S  S  S  S  S  S  S  S  S  S  S  S  S  S      S  S  S  S  S  S  S  S  S  S  S  S  S  S  S  S
||--------15----------16----------15----------13-----||-------15----------16-------20-18-16-------------|
||o----16----16----18----18----16----16----15----15-o||----16----16----18----18-16----------20-18-16----|
||--17----------19----------17----------16-----------||-17----------19-------------------------------19-|
||---------------------------------------------------||-------------------------------------------------|
||o-------------------------------------------------o||-------------------------------------------------|
||---------------------------------------------------||-------------------------------------------------|

   S  S  S  S  S  S  S  S  S  S  S  S  S  +S      +S   S
|----------------------------------------------------------|
|----------------------------------------------------------|
|-20-19-17-19----19----19----19----19----------------------|
|-------------19----17----16-------------------------------|
|-------------------------------18----17-(17)b18-(17)-15---|
|----------------------------------------------------------|

 No Boundaries section
   ~~~~~~~~~~
   H     +E   E  E  E    +H      +E   E  E  E    +H      +E   E  E  E    +E   E  +Q.    S  S  E  E
|---------------------|-----------------------|-----------------------|--------------------------------|
|---------------------|--------------13-------|-----------------------|--------------------------------|
|-17----(17)----12-15-|-(15)----(15)----15-14-|-(14)----(14)-14-14-15-|-(15)-----------------12-15b17==|
|------------15-------|-----------------------|-----------------------|------15-(15)---13h15-----------|
|---------------------|-----------------------|-----------------------|--------------------------------|
|---------------------|-----------------------|-----------------------|--------------------------------|

    ~~~~~~~~~~~~~~~                        ~~~~                  ~~~~~~~~~~~                 ~~~~~~~~~~~~~~~~~~~
   +H      +E       E  E   E        +E     H      E  E  E       +H      +E   E  E   E       +H         +E      Q.    A
|--------------------------------|---------------------------|---------------------------|---------------------------------|
|--------------------------------|---------------13----------|--------------------/13b15-|-(13)b15----(13)pb15r6s==(13)----|
|-(15)----(15)pb17-15-12-/15b17==|=(15)r-[15]-------15-14b15r|=(14)----(14)-14-14--------|---------------------------------|
|--------------------------------|---------------------------|---------------------------|---------------------------------|
|--------------------------------|---------------------------|---------------------------|---------------------------------|
|--------------------------------|---------------------------|---------------------------|---------------------------------|

     S  S  S  S  S  S  S  S  S  S  S  S  S  S  S  S
||--15-12----------12-15-12----------12-15-12-------|
||o-------13-12-13----------13-12-13----------13-12-|
||--------------------------------------------------|
||--------------------------------------------------|
||o-------------------------------------------------|
||--------------------------------------------------|

   S  S  S  S  S  S  S  S  S  S  S  S  S  S  S  S
|-18-15----------15-18-15----------15-18-15-------|
|-------16-15-16----------16-15-16----------16-15-|
|-------------------------------------------------|
|-------------------------------------------------|
|-------------------------------------------------|
|-------------------------------------------------|

                                                   1.
   S  S  S  S  S  S  S  S  S  S  S  S  S  S  S  S    S  S  S  S  S  S  S  S  S  S  S  S  S  S  S  S
|-17-14----------14-17-14----------14-17-14-------|-13-10----------10-13-10----------10-13-10--------||
|-------15-14-15----------15-14-15----------15-14-|-------11-10-11----------11-10-11----------11-10-o||
|-------------------------------------------------|--------------------------------------------------||
|-------------------------------------------------|--------------------------------------------------||
|-------------------------------------------------|-------------------------------------------------o||
|-------------------------------------------------|--------------------------------------------------||

 2.
   S  S  S  S  S  S  S  S  S  S  S  S  S  S  S  S
|-13-10-------13-10-------13-10-------13-10----------|
|-------11-10-------11-10-------11-10-------11-10----|
|----------------------------------------------------|
|----------------------------------------------------|
|----------------------------------------------------|
|----------------------------------------------------|

     S  S  S  S  S S  S S  S S  S  S  S  S  S  S
||--15-12-------------------------------12-15-12-|
||o-------13-12-------------------12-13----------|
||--------------12-9---------9-12----------------|
||-------------------10-9-10---------------------|
||o----------------------------------------------|
||-----------------------------------------------|

   S  S  S  S  S  S  S  S  S  S  S  S  S  S  S  S
|-18-15----------------------------------15-18-15-|
|-------16-15----------------------15-16----------|
|-------------15-12----------12-15----------------|
|-------------------13-12-13----------------------|
|-------------------------------------------------|
|-------------------------------------------------|

  1.
   S  S  S  S  S  S  S  S  S  S  S  S  S  S  S  S    S  S  S  S  S S S S S S  S  S  S  S  S  S
|-17-14----------------------------------14-17-14-|-13-10-----------------------------10-13-10--||
|-------15-14----------------------14-15----------|-------11-10-----------------10-11----------o||
|-------------14-11----------11-14----------------|-------------10-7-------7-10-----------------||
|-------------------12-11-12----------------------|------------------8-7-8----------------------||
|-------------------------------------------------|--------------------------------------------o||
|-------------------------------------------------|---------------------------------------------||

 2.
                                                                                 ~~
   S  S  S  S  S  S  S  S  S S  S S  S S  S  S    S  S  S  S  S  S  S  S  Q   E  E
|-17-14----------------------------------------|----------------14-17-14-17--10-13-|
|-------15-14----------------------------------|----------14-15--------------10-12-|
|-------------14-11----------------------------|----11-14--------------------------|
|-------------------12-11-------------------11-|-12--------------------------------|
|-------------------------12-9---------9-12----|-----------------------------------|
|------------------------------10-9-10---------|-----------------------------------|

 Rock Solo
    ~~~~~~~~~~~~~~~~~~                                    ~~~~           PM-
   +H         +E       E  E  E      S       +E     S  E   Q    E   E     E
|-(13)-------(13)-----10-------|-------------------------------------------|
|-(12)b13----(12)pb13----------|-------------------------------------------|
|------------------------12-12-|-/[12]b14r([12])-10-------------/10b12r===|
|------------------------------|---------------------12-[12]--12--------12-|
|------------------------------|-------------------------------------------|
|------------------------------|-------------------------------------------|

 -------|          PM|                 PM|         ~~~~
   E  E  E   E  E  E E    E        +E  E  E   E   +H
|-------------------------------|------------------------|
|-------------------------------|------------------------|
|-------------------------------|------------------------|
|-10----------------------------|------------------------|
|----12-11-[10]s8----8-/[10]b11r|=(10)-8-----------------|
|-----------------10------------|--------10-[10]-(10)----|

   PM------------------------------------------
   S S  S  S S  S S  S  S S  S  S  S  S  S  S
|---------------------------------------------|
|---------------------------------------------|
|---------------------------------------------|
|---------------------------------------------|
|------------8----8-10-11-8-10-11-12-10-11-12-|
|-10-8-10-12---12-----------------------------|

 -----------------------------------------|
  S  S  S S  S  S S  S  S S  S  S S  S  S S
|--------------------------------------------|
|--------------------------------------------|
|---------------------------------9-------9--|
|-9-------9-10----9-10-12-9-10-12---10-12----|
|---11-12------12----------------------------|
|--------------------------------------------|

   PM----------------|                               ~~~~~~~~~~~~~~~
   S  S S  S  S S  S  S E    E  E  E    E     E  E  +E      +H
|------------------------------10----|-------10------------------------|
|-----------------------9-/10----10-|-13b15----13-(13)b15-(13)pb15----|
|-10----9-10-12-9-10-12--------------|---------------------------------|
|----12------------------------------|---------------------------------|
|------------------------------------|---------------------------------|
|------------------------------------|---------------------------------|

 Two Handed Arpeggios
  Dm
   T        T        T        T        T        T        T        T
   |------6-------|  |------6-------|  |------6-------|  |------6-------|
   S  S  S  S  S  S  S  S  S  S  S  S  S  S  S  S  S  S  S  S  S  S  S  S
|-17p10h13h17p13p10-------------------------------------------------------|
|-------------------18p10h15h18p15p10-------------------------------------|
|-------------------------------------------------------------------------|
|-------------------------------------19p12h15h19p15p12-------------------|
|-------------------------------------------------------20p12h17h20p17p12-|
|-------------------------------------------------------------------------|

  Bb
   T       T       T      T      T       T       T       T
   |-----6------|  |----6-----|  |-----6------|  |-----6------|
   S S  S  S  S S  S S S  S S S  S S  S  S  S S  S S  S  S  S S
|---------------------------------------------------------------|
|---------------------------------------------------------------|
|-----------------------------------------------15p7h10h15p10p7-|
|-------------------------------15p8h12h15p12p8-----------------|
|-----------------13p5h8h13p8p5---------------------------------|
|-13p6h10h13p10p6-----------------------------------------------|

  G                                   Gm                G
   T        T        T        T        T        T        T        T
   |------6-------|  |------6-------|  |------6-------|  |------6-------|
   S  S  S  S  S  S  S  S  S  S  S  S  S  S  S  S  S  S  S  S  S  S  S  S
|-------------------------------------------------------22p15h19h22p19p15-|
|-------------------20p12h15h20p15p12-23p15h20h23p15h20-------------------|
|-19p12h16h19p16p12-------------------------------------------------------|
|-------------------------------------------------------------------------|
|-------------------------------------------------------------------------|
|-------------------------------------------------------------------------|

  C
   T        T        T       T       T       T       T       T
   |------6-------|  |-----6------|  |-----6------|  |-----6------|
   S  S  S  S  S  S  S S  S  S  S S  S S  S  S  S S  S S  S  S  S S
|-20p12h15h20p15p12-------------------------------------------------|
|-------------------------------------------------------------------|
|-------------------17p9h12h17p12p9---------------------------------|
|-------------------------------------------------------------------|
|-----------------------------------15p7h10h15p10p7-----------------|
|---------------------------------------------------15p8h12h15p12p8-|

  Bb
   T       T       T       T       T       T       T       T
   |-----6------|  |-----6------|  |-----6------|  |-----6------|
   S S  S  S  S S  S S  S  S  S S  S S  S  S  S S  S S  S  S  S S
|-----------------------------------------------------------------|
|-----------------------------------------------------------------|
|-------------------------------------------------15p7h10h15p10p7-|
|---------------------------------15p8h12h15p12p8-----------------|
|-----------------17p8h13h17p13p8---------------------------------|
|-13p6h10h13p10p6-------------------------------------------------|

  A
   T        T        T        T        T        T        T        T
   |------6-------|  |------6-------|  |------6-------|  |------6-------|
   S  S  S  S  S  S  S  S  S  S  S  S  S  S  S  S  S  S  S  S  S  S  S  S
|-------------------------------------------------------21p12h17h21p12h17-|
|-------------------------------------22p14h17h22p14h17-------------------|
|-------------------21p14h18h21p14h18-------------------------------------|
|-19p11h14h19p11h14-------------------------------------------------------|
|-------------------------------------------------------------------------|
|-------------------------------------------------------------------------|

  Ab
   T        T        T        T        T        T        T        T
   |------6-------|  |------6-------|  |------6-------|  |------6-------|
   S  S  S  S  S  S  S  S  S  S  S  S  S  S  S  S  S  S  S  S  S  S  S  S
|-------------------------------------------------------------------------|
|-------------------------------------------------------------------------|
|-20p13h17h20p13h17-------------------------------------------------------|
|-------------------22p13h18h22p13h18-18p10h13h18p10h13-------------------|
|-------------------------------------------------------18p11h15h18p11h15-|
|-------------------------------------------------------------------------|

  F                                   E           Eb
   T        T        T        T
   |------6-------|  |------6-------|
   S  S  S  S  S  S  S  S  S  S  S  S  S  S  S  S  S  S  S  S
|--------------------------------------------------------------|
|--------------------------------------------------------------|
|-17p10h14h17p10h14-17p10h14h17p10h14-16-13-------15-12--------|
|-------------------------------------------14-13-------13-12--|
|--------------------------------------------------------------|
|--------------------------------------------------------------|

 Outro
    1__________________________2.5___/             2.5
    W             +W            a      W            +W
|--------------|-------------|-------------------|-----------|
|--------------|-------------|-------------------|-----------|
|--------------|-------------|-------------|-()-----|
|--------------|-------------|-------------------|-----------|
|--------------|-------------|-------------------|-----------|
|-[13]---------|-(13)--------|-------------------|-----------|

                        ~~~~~~~
                                   |------6-------|
   Q   Q   Q   Q     E  E  +H      S  S  S  S  S  S
|-----------------|------------------------------13-|
|-15--14--13--14--|-15------------------------15----|
|-----------------|------------------------14-------|
|-----------------|----12-(12)----------15----------|
|-----------------|---------------12h17-------------|
|-----------------|---------------------------------|

                                        ~~~~~~~~~
   |-------6-------|  |------6-------|
   S  S  S   S  S  S  S  S  S  S  S  S  Q   +Q    a
|-17p13-----------17-22p17----------------------------*|
|-------15-----18----------18-------------------------*|
|----------/19----------------19----------------------*|
|--------------------------------19-------------------*|
|-----------------------------------20-17--(17)s=(3)--*|
|-----------------------------------------------------*|
Comments