Michael Angelo - So Much To Live For Chords & Tabs

 

So Much To Live For Chords & Tabs

Michael Angelo Chords & Tabs

Version: 1 Type: Tab 0 ratings
1 star 2 stars 3 stars 4 stars 5 stars
comments

So Much To Live For Tab

   
song:so much to live for
album:planet gemini
by michael angelo batio
tabbed by: leander m.(  leander_85@yahoo.com   )
sori i cant find the emotional lyrics of this song
intro:(F#-D-E)
E|----------0-----------------0--------|-----------2--------|----------0--------|
B|--------0---0-------------0---0------|------3------3------|------0-----0------|
G|------3-------3---------3-------3----|----2---2------2----|----3---3-----3----|
D|----4-----------4-----4-----------4--|--0--------------0--|--2-------------2--|
A|-------------------------------------|--------------------|-------------------|
E|--2----------------2-----------------|--------------------|-------------------|

stanza:strumming(F#-D-E)

refrain:(F#-D-F#-D-F#-D-E-F#-D)

how to much to live for

why its worth dying for

i cant stop crying for

nothing in this world never change

bridge:(F#-D)
ohh-ohh-ohh-ohh-ohh-ohh-ohh

tablegend:
~(vibrato)
h(hammer on)
p(pull off)
slide /(up)\(down)
BF(bendfull)
r(release)
^(halfbend)
solo:
E|--------------------------------------------------|
B|--------------------------------------------------|
G|--11~~~--9~~-----------------9-9h11~~-9~~---------|
D|------------9h11--------9-11-------------9h11-10--|
A|-----------------9~~-11---------------------------|
E|--------------------------------------------------|

E|------------------------------------------------------17-------|
B|---------------------------------------------------17----20bf--|
G|------19bfr-19bf--19-17-19~~-19--17-16-17----17h19-------------|
D|--\16-------------------------------------19-------------------|
A|---------------------------------------------------------------|
E|---------------------------------------------------------------|

E|----------------------------------------------------|
B|--21bf--20-20-20----------------17-17---------------|
G|------------------19bfr-17-19bf-------19~-17-17-17--|
D|----------------------------------------------------|
A|----------------------------------------------------|
E|----------------------------------------------------|
[ Tab from: http://www.guitartabs.cc/tabs/m/michael_angelo/so_much_to_live_for_tab.html ]
E|--------------------------------------------------------------|
B|--------------------------------------------------------------|
G|--16h17h19p17p16----------------16h17h19p17p16----------------|
D|-----------------19p17p16h17h19----------------19p17p16h17h19-|
A|--------------------------------------------------------------|
E|--------------------------------------------------------------|

E|----------------------------------------------------------------|
B|--20-17-17-20-20-20-------20-20-20~-----------------------------|
G|--------------------19-19-----------19^20r19p17h19p17h19p16-----|
D|------------------------------------------------------------19--|
A|----------------------------------------------------------------|
E|----------------------------------------------------------------|

E|----------------------------------------------------------------|
B|-----------------------------------17h18h20-20bf----------------|
G|-----------16h17h19p17----16h17h19---------------19bfr-17-------|
D|--16h17h19-------------19---------------------------------19~~--|
A|----------------------------------------------------------------|
E|----------------------------------------------------------------|

E|------------------------------------------------------------------------------|
B|--------------------------------------------------17-17^18--------------------|
G|-----------16h17h19p17p16h17h19p17p16----16h17h19----------19-19^20-17--------|
D|--16h17h19----------------------------19-------------------------------19-19--|
A|------------------------------------------------------------------------------|
E|------------------------------------------------------------------------------|

E|-------------------------------------------------------|
B|--------------------------------------17h18h20--20~~---|
G|-----------16h17h19----------16h17h19------------------|
D|--16h17h19----------16h17h19---------------------------|
A|-------------------------------------------------------|
E|-------------------------------------------------------|

song pattern:
intro:
stanza:
refrain:
stanza:
refrain:
bridge:
solo:
intro riff:
stanza:
refrain:
bridge:(fading)
Comments