Michael Angelo - Prog Chords & Tabs

 

Prog Chords & Tabs

Michael Angelo Chords & Tabs

Version: 1 Type: Tab 0 ratings
1 star 2 stars 3 stars 4 stars 5 stars
comments

Prog Tab

   
song:prog
album:tradition
artist:michael angelo batio
tab by: leander m.      leander_85@yahoo.com

E|---------------------------------------------6/9--|-10-12-13-12-10--------------------|
B|----5-6h8~--6-6h8p6p5--8-6-5-------5-6h8~--6------|----------------12-----------------|
G|--7--------------------------7-5h7----------------|-------------------10-9-7-9-10-12--|
D|--------------------------------------------------|-----------------------------------|
A|--------------------------------------------------|-----------------------------------|
E|--------------------------------------------------|-----------------------------------|


					           .  .      .  .    .   .     .  .
E|------------------------------------------------------------------------------------------------|
B|--------------------------10---------------------12-------13-------10-------12------------------|
G|--10--9h10p9--7---------9----10-9--9h10p9-7~--------12-12----12-12----10-10----10-10-9h10p9-7~--|
D|----------------10-7-10----------------------/12------------------------------------------------|
A|------------------------------------------------------------------------------------------------|
E|------------------------------------------------------------------------------------------------|

E|--------------13-17--t21--17-13--------------------10-13-------12-15------6-9--------9-12-|
B|-----------15-------------------15--------------12----------14----------8---------11------|
G|--------14-------------------------14--------13----------15-----------9--------12---------|
D|-----15-------------------------------15--------------------------------------------------|
A|--17-------------------------------------17~----------------------------------------------|
E|------------------------------------------------------------------------------------------|

E|------------8-12-8---------------------------6/9--10-12-13-12-10----------------------------------|
B|---------10--------10---------------5-6h8~-6---------------------12-------------------------------|
G|-------9--------------9----------7~---------------------------------10-9-7-9-10-12--10--9h10p9--7-|
D|----10------------------10------------------------------------------------------------------------|
A|-12------------------------12---------------------------------------------------------------------|
E|--------------------------------------------------------------------------------------------------|

E|----------------------------------------------------------------------------------------|
B|-----------------------------------------12-------13-------10-------12------------------|
G|--------7-10--12-10-9-10--9h10p9-7~---------12-12----12-12----10-10----10-10--9h10p9-7--|
D|10-7-10------------------------------/12------------------------------------------------|
A|----------------------------------------------------------------------------------------|
E|----------------------------------------------------------------------------------------|
						       . . . . . . . . . .  . . . . .

E|--------------------------------------------------------------------------------------------------|
B|------------------------------------------------------------18p17p15------------------------------|
G|---------------------------------------------------18p17p15----------18p17p15---------------------|
D|-----------------------------------------17p15p14-----------------------------17-15-14------------|
A|7-7-7---5-5-5---4-4--4-4-4-4-4--17p15p14------------------------------------------------17-15-14--|
E|------5-------3------2-2-2-2-2--------------------------------------------------------------------|

E|--------------------------------------14-15-17^18--17p16-16-15~-----------14----------------14---|
B|--------------------------------18bfr----------------------------14h15h17----17p15p14h15h17------|
G|----------16-16~~-18-18-19-21bf------------------------------------------------------------------|
D|-17-15-14----------------------------------------------------------------------------------------|
A|-------------------------------------------------------------------------------------------------|
E|-------------------------------------------------------------------------------------------------|

E|---------------14h15h17p15p14h15p17/18p17p15-------------------|
B|17p15p14h15h17-------------------------------18p17p15-18p17p15-|
G|---------------------------------------------------------------|
D|---------------------------------------------------------------|
A|---------------------------------------------------------------|
E|---------------------------------------------------------------|

E|--------------------------------------------------------------------------------------------|
B|--------------------------------------------------------------------------------------------|
G|--17p15p14-17p15p14----------------14h15h17p15p14-------------------------------------------|
D|--------------------17p15p14h15h17----------------17p15p14----------------------------------|
A|-----------------------------------------------------------16p15p13-16p15p13----------------|
E|-----------------------------------------------------------------------------16p14p12h14h16-|

E|--------------------------------------------------------------15h17h18p17p15---------------------|
B|-----------------------------15h17h18----------------15h17h18----------------19p17p15-18p17p15---|
G|--------------------14h15h17----------17p15p14h15h17---------------------------------------------|
D|-----------14h15h17------------------------------------------------------------------------------|
A|--13h15h16---------------------------------------------------------------------------------------|
E|-------------------------------------------------------------------------------------------------|

E|-----------15h17h18--20p19p17-----------------------------18h20h21----------18h20h21----------18h20h21--|
B|--15h17h18--------------------21p19p17-20p19p17--18h20h21----------18h20h21----------18h20h21-----------|
G|--------------------------------------------------------------------------------------------------------|
D|--------------------------------------------------------------------------------------------------------|
A|--------------------------------------------------------------------------------------------------------|
E|--------------------------------------------------------------------------------------------------------|

E|--21-19-17-16~~--|
B|-----------------|
G|-----------------|
D|-----------------|
A|-----------------|
E|-----------------|
		    
|---------------------------------------13-17-t21-17-13----------13-17-t21-17-13---------------|
|------------------------------------15-----------------15----15-----------------15------------|
|---------------------------------14-----------------------14-----------------------14---------|
|------------------------------15------------------------------------------------------15------|
|---------------------------17------------------------------------------------------------17---|
|--4-2--6-2-4--6-4-2--0------------------------------------------------------------------------|
   . .  . . .  . . .                                                                            


(strumming) just hear the music
   Bm    Am
E|--2--|--0--|--7--|--3--4--5--6--7--8--9--10--11--12--|----2---2----2---2--3-3----2---2---0--|
B|--3--|--1--|--8--|--4--5--6--7--8--9-10--11--12--13--|----3---3----3---3--4-4----3---3---1--|
G|--4--|--2--|--9--|--5--6--7--8--9-10-11--12--13--14--|--0-4-0-4--0-4-0-4--5-5--0-4-0-4-0-2--|
D|--4--|--2--|--9--|--5--6--7--8--9-10-11--12--13--14--|--0-4-0-4--0-4-0-4--5-5--0-4-0-4-0-2--|
A|--2--|--0--|--7--|--3--4--5--6--7--8--9--10--11--12--|--0-2-0-2--0-2-0-2--3-3--0-2-0-2-0-0--|
E|-----|-----|-----|-----------------------------------|--------------------------------------|

nadineaudrielle@yahoo.com
E|-------------------------------------------------------------------|
B|------------15~-15-13-13-------------------------------------------|
G|---------------------------15-13-12--------------------------------|
D|--12-14-16--------------------------15p14p12-----------------------|
A|---------------------------------------------15p14p12--14-12-10-9--|
E|-------------------------------------------------------------------|

E|-----------------------------------------------------------------|
B|-----------------------------------------------------------------|
G|-----------------------------------------------------------------|
D|-----------------------------------------------------------------|
A|--12p11p9-10p9p7-9p7p5------------------------------------5-4~~--|
E|------------------------10p9p7-9p7p5-7p5p3-5p3p2p0h2h3--5--------|
						   . . .  .


E|------------------------------------------------------------------------------|
B|------------------------------------------------------------------------------|
G|------------------------------------------------------------------------------|
D|------------------------------------2h3h5p3p2-----------2h3h5---------2h3h5---|
A|--------1h3h5p3p1-------------1h3h5-----------5p3p1h3h5--------1h3h5----------|
E|--1h3h5-----------5p3p1-1h3h5-------------------------------------------------|

E|---------------------------------------------------------------------------|
B|---------------------------------------------------------------------------|
G|--------------4h5h7p5p4-----------4h5h7--------5h7h9--------7h9h11~-9-7-6--|
D|--------4h5h7-----------7p5p4h5h7--------5h7h9-------7h9h11----------------|
A|--3h5h7--------------------------------------------------------------------|
E|---------------------------------------------------------------------------|

E|------------------------------------------------------|
B|------------------------------------------------------|
G|--7p6p4-6---6---4---------------6-4-------------------|
D|----------7---7----7-6-4--7p6p4-----7-6-4---4-6-7-6~--|
A|------------------------------------------7-----------|
E|------------------------------------------------------|

shredding
E|----------------------------------------------------------------------------------------------|
B|----------------------------------------------------------------------------------------------|
G|----------------------------------------------------------------9h10h12p10p9-12p10p9----------|
D|------------------9h10h12p10p9-12p10p9------------------9h10h12----------------------12p10p9--|
A|----------8h10h12----------------------12p10p8--8h10h12---------------------------------------|
E|--8h10h12-------------------------------------------------------------------------------------|

E|-------------------------------------------------------------------------------------|
B|------------------8h10h12p10p8-12p10p8----------------------------12h14h15-----------|
G|----------9h10h12----------------------12p10p9-----------11h12h14--------------------|
D|--9h10h12---------------------------------------11h12h14-----------------------------|
A|-------------------------------------------------------------------------------------|
E|-------------------------------------------------------------------------------------|

E|--12----------------12----------------12----------------12h14h15-15p14p12-15p14p12-----------|
B|-----15p14p12h14h15----15p14p12h14h15----15p14p12h14h15----------------------------15p14p12--|
G|---------------------------------------------------------------------------------------------|
D|---------------------------------------------------------------------------------------------|
A|---------------------------------------------------------------------------------------------|
E|---------------------------------------------------------------------------------------------|

E|-----------14h15h17----------14h15h17-17p15p14-17p15p14----------------------------------|
B|--14h15h17----------14h15h17----------------------------17p15p14-17p15p14-16h17h19-------|
G|-----------------------------------------------------------------------------------------|
D|-----------------------------------------------------------------------------------------|
A|-----------------------------------------------------------------------------------------|
E|-----------------------------------------------------------------------------------------|

E|------------17h19h20----------17h19h20----------17h19h20----------19h21h22----------12h21h22-22bf--|
B|--17h19h20-----------17h19h20----------17h19h20----------19h21h22----------19h21h22----------------|
G|---------------------------------------------------------------------------------------------------|
D|---------------------------------------------------------------------------------------------------|
A|---------------------------------------------------------------------------------------------------|
E|---------------------------------------------------------------------------------------------------|


prog theme:
E|--\7----5\7~-------9^10r9-9h10p7----------7-9-10-9-7-----7---5---5--------------------------|
B|-----7-------7-7\8---------------10-10\12------------10----7---5----------------------------|
G|-------------------------------------------------------------------7-6h7p7-------------7~~--|
D|---------------------------------------------------------------------------9~~-9-7-4-5------|
A|--------------------------------------------------------------------------------------------|
E|--------------------------------------------------------------------------------------------|

E|-----------------||--------------15-19-22t-19p15----------15-19-22t-19p15--------------|
B|-----------------||-----------17-----------------17----17-----------------17-----------|
G|--6-6h7p6-4------||--------16-----------------------16-----------------------16--------|
D|------------7\9--||-----17------------------------------------------------------17-----|
A|-----------------||--19------------------------------------------------------------19--|
E|-----------------||--------------------------------------------------------------------|

E|--------------13h17-20tp17p13----------13h17-20tp17p13------------------7-10-----5-8~--|
B|-----------15-----------------15----15-----------------15-------------8--------6-------|
G|--------14-----------------------14-----------------------14-------10--------8---------|
D|-----15------------------------------------------------------15------------------------|
A|--17------------------------------------------------------------17---------------------|
E|---------------------------------------------------------------------------------------|
[ Tab from: http://www.guitartabs.cc/tabs/m/michael_angelo/prog_tab.html ]
E|--2--------------2-------------------   ---|
B|----5-2-------3----5-2---------------   ---|
G|--------4bf-2-4--------4bfr4-2-4-----(2x)--|
D|--------------4------------------2---   ---|
A|--------------2----------------------  ----|
E|-------------------------------------   ---|


strumming) just hear the music
   Bm    Am
E|--2--|--0--|--7--|--3--4--5--6--7--8--9--10--11--12--|----2---2----2---2--3-3----2---2---0--|
B|--3--|--1--|--8--|--4--5--6--7--8--9-10--11--12--13--|----3---3----3---3--4-4----3---3---1--|
G|--4--|--2--|--9--|--5--6--7--8--9-10-11--12--13--14--|--0-4-0-4--0-4-0-4--5-5--0-4-0-4-0-2--|
D|--4--|--2--|--9--|--5--6--7--8--9-10-11--12--13--14--|--0-4-0-4--0-4-0-4--5-5--0-4-0-4-0-2--|
A|--2--|--0--|--7--|--3--4--5--6--7--8--9--10--11--12--|--0-2-0-2--0-2-0-2--3-3--0-2-0-2-0-0--|
E|-----|-----|-----|-----------------------------------|--------------------------------------|

nadineaudrielle@yahoo.com
E|-------------------------------------------------------------------|
B|------------15~-15-13-13-------------------------------------------|
G|---------------------------15-13-12--------------------------------|
D|--12-14-16--------------------------15p14p12-----------------------|
A|---------------------------------------------15p14p12--14-12-10-9--|
E|-------------------------------------------------------------------|

E|-----------------------------------------------------------------|
B|-----------------------------------------------------------------|
G|-----------------------------------------------------------------|
D|-----------------------------------------------------------------|
A|--12p11p9-10p9p7-9p7p5------------------------------------5-4~~--|
E|------------------------10p9p7-9p7p5-7p5p3-5p3p2p0h2h3--5--------|
						   . . .  .


E|--------------------------------------------------------------------------------------------|
B|--------------------------------------------------------------------------------------------|
G|--------------------------------------------------------------------------------------------|
D|--------------2-4-5--4--2----2--------------------------------------------------------------|
A|--------1-3-5-------------5-----5-4--5--4-2--4--2----2--5-3-2--3-2---2---------------2-3-2--|
E|--1-3-5-------------------------------------------5----------------5---5-3-5-3-1-3-5--------|
    . . . . . . . . .  .  . .  .  . .     . .  .  . .


E|------------------------------------------------------------------------------------------------------|
B|------------------------------------------------------------------------------------------------------|
G|---------------------------4h5h7p5p4---------------4h5h7-------6h7h9--------8h9h11---------9h10h12~~--|
D|--------2h3h5--------3h5h7-----------7p5p3---3h5h7-------5h7h9-------7h9h11--------8h10h12------------|
A|--2h3h5--------3h5h7----------------------------------------------------------------------------------|
E|------------------------------------------------------------------------------------------------------|

E|-----------------------------------------------------------------------------------------|
B|-----------------------------------------------------------------------------------------|
G|-----------------------9h11h12-12p11p9-12p11p9------------------9h11h12---------9h11h12--|
D|--9h11h12p11p9-9h11h12-------------------------12p11p9--9h11h12---------9h11h12----------|
A|-----------------------------------------------------------------------------------------|
E|-----------------------------------------------------------------------------------------|

E|-----------------------------------------------------------13h15h16-----------------|
B|--------------------13h15h16p15p13----------------13h15h16--------------------------|
G|-----------12h13h15----------------15p13p12h13h15-------------------15p13p12h13h15--|
D|--12h13h15--------------------------------------------------------------------------|
A|------------------------------------------------------------------------------------|
E|------------------------------------------------------------------------------------|

E|------------------------------------------------------------------------------13h15h16--|
B|--13h15h16p15p13-----------------------------13h15h16----------------13h15h16-----------|
G|------------------------------------12h13h15----------15p13p12h13h15--------------------|
D|-----------------15p13p12--12h13h15-----------------------------------------------------|
A|----------------------------------------------------------------------------------------|
E|----------------------------------------------------------------------------------------|

E|-----------13h15h16-----------13h15h16-17p15p13--------------------13h15h16----------15h17h18--|
B|--13h15h16-----------13h15h16-------------------16p15p13--13h15h17----------15h17h18-----------|
G|-----------------------------------------------------------------------------------------------|
D|-----------------------------------------------------------------------------------------------|
A|-----------------------------------------------------------------------------------------------|
E|-----------------------------------------------------------------------------------------------|

E|-----------15h17h18-19p17p15-------------------15h17h18----------17h19h20--|
B|--15h17h18-------------------18p17p15-15h17h18----------17h19h20-----------|
G|---------------------------------------------------------------------------|
D|---------------------------------------------------------------------------|
A|---------------------------------------------------------------------------|
E|---------------------------------------------------------------------------|

E|-----------17h19h20-21p19p17--------------------17h19h20----------18h19h21bf--|
B|--17h19h20-------------------20p19p17--17h19h20----------18h19h21-------------|
G|------------------------------------------------------------------------------|
D|------------------------------------------------------------------------------|
A|------------------------------------------------------------------------------|
E|------------------------------------------------------------------------------|

prog theme:
E|--\7----5\7~-------9^10r9-9h10p7----------7-9-10-9-7-----7---5---5--------------------------|
B|-----7-------7-7\8---------------10-10\12------------10----7---5----------------------------|
G|-------------------------------------------------------------------7-6h7p7-------------7~~--|
D|---------------------------------------------------------------------------9~~-9-7-4-5------|
A|--------------------------------------------------------------------------------------------|
E|--------------------------------------------------------------------------------------------|

E|-----------------||--------------15-19-22t-19p15----------15-19-22t-19p15--------------|
B|-----------------||-----------17-----------------17----17-----------------17-----------|
G|--6-6h7p6-4------||--------16-----------------------16-----------------------16--------|
D|------------7\9--||-----17------------------------------------------------------17-----|
A|-----------------||--19------------------------------------------------------------19--|
E|-----------------||--------------------------------------------------------------------|

E|--------------13h17-20tp17p13----------13h17-20tp17p13---------------------------------|
B|-----------15-----------------15----15-----------------15------------------------------|
G|--------14-----------------------14-----------------------14---------------------------|
D|-----15------------------------------------------------------15------------------------|
A|--17------------------------------------------------------------17---------------------|
E|---------------------------------------------------------------------------------------|


E|--------18-21--------15-18--|
B|-----19-----------17--------|
G|--21-----------18-----------|
D|----------------------------|
A|----------------------------|
E|----------------------------|

finale solo
E|--------17-20p19p17-------------------------------17-20-------16-19-------------|
B|-----18-------------20p19p17-------------------18----------18-------------------|
G|--20-------------------------19p17p16h17h19-20----------19----------------------|
D|--------------------------------------------------------------------------------|
A|--------------------------------------------------------------------------------|
E|--------------------------------------------------------------------------------|

E|--------14-17p15p14-------------17p15p14-------------17p15p14-------------------14-17p15p14--------------|
B|-----15-------------17p15p14-------------17p15p14-------------17p15p14-------15-------------17p15p14-----|
G|--17-------------------------------------------------------------------16-17-------------------------16--|
D|---------------------------------------------------------------------------------------------------------|
A|---------------------------------------------------------------------------------------------------------|
E|---------------------------------------------------------------------------------------------------------|

E|-----------14h15h17-17p15p13----------------13h15h17-----------13h15h17----------13h15h17----------13h15h17--|
B|--14h15h17-------------------17p15p13h15h17-----------13h15h17----------13h15h17----------13h15h17-----------|
G|-------------------------------------------------------------------------------------------------------------|
D|-------------------------------------------------------------------------------------------------------------|
A|-------------------------------------------------------------------------------------------------------------|
E|-------------------------------------------------------------------------------------------------------------|

E|-----------12h14h15----------12h14h15----------10h12h13----------12h14h15~~--|
B|--12h14h15----------12h14h15----------10h12h13----------12h14h15-------------|
G|-----------------------------------------------------------------------------|
D|-----------------------------------------------------------------------------|
A|-----------------------------------------------------------------------------|
E|-----------------------------------------------------------------------------|

E|-----------12----------------------12h14h15-15p14p12-15p14p12-------------------12h14h15----------14h15h17--|
B|--12h14h15----15p14p12----12h14h15----------------------------15p14p12-12h14h15----------14h15h17-----------|
G|-----------------------14-----------------------------------------------------------------------------------|
D|------------------------------------------------------------------------------------------------------------|
A|------------------------------------------------------------------------------------------------------------|
E|------------------------------------------------------------------------------------------------------------|

E|-----------17h19h20p19p17--------------------------------------------------------------------------------|
B|--17h19h20----------------20p19p17-----------------------------------------------------------------------|
G|-----------------------------------17p15p12-------------------12h15h17p15p12-----------------------------|
D|--------------------------------------------17p15p12-12h15h17----------------17p15p12--------------------|
A|--------------------------------------------------------------------------------------14p12p9------------|
E|-----------------------------------------------------------------------------------------------14p12p9---|

E|---------------------------------------------17h19h20p19p17----------------18h21p18-----------18h21p18---|
B|------------------------------------17h19h20----------------20p19p17----20----------20-----20----------20|
G|---------------------------12h15h17----------------------------------21-----------------21---------------|
D|------------------12h15h17-------------------------------------------------------------------------------|
A|----------9h12h14----------------------------------------------------------------------------------------|
E|--9h12h14------------------------------------------------------------------------------------------------|

E|-------18h21p18----------18h21bf--|
B|----20----------20----20----------|
G|-21----------------21-------------|
D|----------------------------------|
A|----------------------------------|
E|----------------------------------|


(cross hand tapping)


E|---------------|
B|--3-2h3p2p0~~--|
G|---------------|
D|---------------|
A|---------------|
E|---------------|

|-----------15h19~--15-14h15p14--------12h15h17----------------12h14h15p14p12------------------------------|
|--------17-----------------------17~~----------15p14p12h14h15----------------15p14p12---------------------|
|-----16-------------------------------------------------------------------------------14p12p11------------|
|--17-------------------------------------------------------------------------------------------14p12p11---|
|----------------------------------------------------------------------------------------------------------|
|----------------------------------------------------------------------------------------------------------|


E|----------------------------------------------------------|
B|----------------------------------------------------------|
G|-----------14p12h11-12p11p9-------------------------------|
D|--14p12h11------------------12p11p9-----------------------|
A|------------------------------------12p11p9----------12~--|
E|--------------------------------------------12p11p9-------|

E|-------------9h12t15p12p9---------9h12t15p12p9---------9h12t15p12p9---------9h12t15p12p9---------|
B|----------10--------------10---10--------------10---10--------------10---10--------------10---10-|
G|--------9--------------------9--------------------9--------------------9--------------------9----|
D|-----10------------------------------------------------------------------------------------------|
A|--12---------------------------------------------------------------------------------------------|
E|-------------------------------------------------------------------------------------------------|

E|9h12t15p12p9---------9h12t15/18\15p12p9---------------|
B|-------------10---10--------------------10------------|
G|----------------9--------------------------9----------|
D|---------------------------------------------10-------|
A|------------------------------------------------12~~--|
E|------------------------------------------------------|


(cross hand tapping)

E|--------------------------------------------|
B|--------------------------------------------|
G|--------------------------------------------|
D|--------------------------------------------|
A|--7-5-4----7-5-4---7p5p4-------7p5p4--------|
E|--------7--------7-------7p5p4-------7p5p4--|
    . . . .  . . . .

(repeat prog theme)

(cross hand tapping)

the end

sucker its hard
Comments