Mic Christopher - Kids Song Chords & Tabs

 

Kids Song Chords & Tabs

Mic Christopher Chords & Tabs

Version: 1 Type: Tab 0 ratings
1 star 2 stars 3 stars 4 stars 5 stars
comments

Kids Song Tab

   
-------------------------------------------------------------------------------
                             Kid's Song - Mic Christopher
-------------------------------------------------------------------------------
Tabbed by: Zak M

Tuning: Standard or Capo 1 (The album version sounds closest to capo 1 but not exact)


This song is based off the G shape but slightly different
Can be finger picked or strummed (both are in the song)
The main riff is played throughout the whole song apart from where it goes "but how 
comes we both go to schools..." which is an Am chord.

Finger positions (which I find the easiest..)

e|--------3---[4]-------3---[4]-------3---[4]------3---[4]-----|
B|--------3---[3]-------1---[1]-------0------------1---[1]-----|
G|--------0-------------0-------------0------------0-----------|
D|--------0-------------0-------------0------------0-----------|
A|--------x-------------x-------------x------------x-----------|
E|--------3---[2]-------3---[2]-------3---[2]------3---[2]-----|




[Riff]
[ Tab from: http://www.guitartabs.cc/tabs/m/mic_christopher/kids_song_tab.html ]
e|--------3----------3----------3---------3--------|
B|--------3----------1----------0---------1--------|
G|--------0----------0----------0---------0--------|
D|--------0----------0----------0---------0--------|
A|--------x----------x----------x---------x--------|
E|--------3----------3----------3---------3--------|


Lyrics:

[Riff]
How come your sister's in drag?
Where are the clothes that she had?
Well I've seen her of late
I think she put on some weight like a man
and
How come that boy's not like me?
What colour me does he see?
Well they say that he's blue
I think he colours my room when he comes

[Am]
... but how comes we both go to schools
on different sides of the street?

[Riff]
How comes this girl that I knew?
Sometimes she don't look so good
Well her mom says it's flu
But she wears coats in the gym class at school

[Am]
... I tell her, I wanna be friends with you
will you be friendly to me?

[Riff]
So how comes your sister's in drag?
And how comes some people get mad?
'Cause either red, green or blue
I think they colour my room when they come
Yeah either red, green or blue
I think they brighten my room when they come
Comments