Mewithoutyou - Gentlemen Chords & Tabs

 

Gentlemen Chords & Tabs

Mewithoutyou Chords & Tabs

Version: 1 Type: Tab 0 ratings
1 star 2 stars 3 stars 4 stars 5 stars
comments

Gentlemen Tab

   
Petey D.
|Guitar 1 x2 (second time around cut the parts between the | in half)
|-------------------------------------------|--------------------------------|
|-------------------------------------------|--------------------------------|
|-8--8-8-9---8--8-8-9---8--8-8-9---8--8-8-9-|--------------------------------|
|-x--x-x-x---x--x-x-x---x--x-x-x---x--x-x-x-|--7-7-7-7-7-7-7---7-7-7-7-7-7-7-|
|-6--6-6-7---6--6-6-7---6--6-6-7---6--6-6-7-|--7-7-7-7-7-7-7---7-7-7-7-7-7-7-|
|-------------------------------------------|--7-7-7-7-7-7-7---7-7-7-7-7-7-7-|
|
|Guitar 2 x2 (second time around cut the parts between the | in half)
|---------8---------------------8------------|------------------------------|
|-----------10--------------------10---------|------------------------------|
|-8-8-8-9------8-8-8-9--8-8-8-9------8-8-8-9-|-8-8-8-8-9-9-9--8-8-8-8-9-9-9-|
|-7-7-7-7------7-7-7-7--7-7-7-7------7-7-7-7-|-7-7-7-7-7-7-7--7-7-7-7-7-7-7-|
|-7-7-7-7------7-7-7-7--7-7-7-7------7-7-7-7-|-7-7-7-7-7-7-7--7-7-7-7-7-7-7-|
|-7-7-7-7------7-7-7-7--7-7-7-7------7-7-7-7-|-7-7-7-7-7-7-7--7-7-7-7-7-7-7-|

|Guitar 1 x2
|---------------------------------------------------------------|
|---------------------------------------------------------------|
|---------------------------------------------------------------|
|-7-7-7---7-7-7---7-7-7---7-7-7---7-7-7---7-7-7---7-7-7---7-7-7-|
|-7-7-7---7-7-7---7-7-7---7-7-7---7-7-7---7-7-7---7-7-7---7-7-7-|
|-7-7-7---7-7-7---7-7-7---7-7-7---7-7-7---7-7-7---7-7-7---7-7-7-|
| x x x   x x x   x x x   x x x   x x x   x x x   x x x   x x x
|
|Guitar 2
|-0~------------------------------|
|-1~------------------------------|
|-2~-(use a pitch shifter, possibly digitech whammy, and go up to an F#minor)
|-2~------------------------------|
|-0~------------------------------|
|---------------------------------|

|Guitar 1+2 x4
|------------------------------------|
|------------------------------------|
|------------------------------------|
|-7--7-7---7--7-7---7--7-7---7--7-7--|
|-7--7-7---7--7-7---7--7-7---7--7-7--|
|-7--7-7---7--7-7---7--7-7---7--7-7--|
  x  x x   x  x x   x  x x   x  x x

|Guitar 1
|--------------------------|
|--------------------------|
|--------------------------|
|-0-----0-0-----0------0-0-|
|-0-----0-0-----0------0-0-|
|-0-----0-0-----0------0-0-|
|
|Guitar 2
|-------------------------------|
|-------------------------------|
|---------------9--7--5h7--5--2-|
|-0-----0-0---------------------|
|-0-----0-0---------------------|
|-0-----0-0---------------------|

|Guitar 1+2 x4
|------------------------------------|
|------------------------------------|
|------------------------------------|
|-7--7-7---7--7-7---7--7-7---7--7-7--|
|-7--7-7---7--7-7---7--7-7---7--7-7--|
|-7--7-7---7--7-7---7--7-7---7--7-7--|
  x  x x   x  x x   x  x x   x  x x

|Guitar 1
|--------------------------|
|--------------------------|
|--------------------------|
|-0-----0-0-----0------0-0-|
|-0-----0-0-----0------0-0-|
|-0-----0-0-----0------0-0-|
|
|Guitar 2
|-------------------------------|
|-------------------------------|
|---------------9--7--5h7--5--2-|
|-0-----0-0---------------------|
|-0-----0-0---------------------|
|-0-----0-0---------------------|
[ Tab from: http://www.guitartabs.cc/tabs/m/mewithoutyou/gentlemen_tab.html ]
|Guitar 1 x4 (On the fourth time don't play the part beyond the |, just go straight into the verse)
|---------------------------------------|
|---------------------------------------|
|---------------------------------------|
|-10-10-10-10-2-2-2-2-|-7-7-7-7-7-7-7-7-|
|-10-10-10-10-2-2-2-2-|-7-7-7-7-7-7-7-7-|
|-10-10-10-10-2-2-2-2-|-7-7-7-7-7-7-7-7-|
|
|Guitar 2 (tremelo each note)
|----------------------------------------------------------------------------|
|----------------------------------------------------------------------------|
|-14-16-14--13-14--9~--14-16-14--13-14--14~--14-16-14--13-14--9-7--5~--------|
|----------------------------------------------------------------------------|
|----------------------------------------------------------------------------|
|----------------------------------------------------------------------------|
|
|----------------------|
|----------------------|
|-14-16-14--13-14--14~-|
|----------------------|
|----------------------|
|----------------------|

|Guitar 1+2 x6
|------------------------------------|
|------------------------------------|
|------------------------------------|
|-7--7-7---7--7-7---7--7-7---7--7-7--|
|-7--7-7---7--7-7---7--7-7---7--7-7--|
|-7--7-7---7--7-7---7--7-7---7--7-7--|
  x  x x   x  x x   x  x x   x  x x

|Guitar 1
|--------------------------|
|--------------------------|
|--------------------------|
|-0-----0-0-----0------0-0-|
|-0-----0-0-----0------0-0-|
|-0-----0-0-----0------0-0-|
|
|Guitar 2
|-------------------------------|
|-------------------------------|
|---------------9--7--5h7--5--2-|
|-0-----0-0---------------------|
|-0-----0-0---------------------|
|-0-----0-0---------------------|

|Guitar 1+2 x3 1/4
|------------------------------------|
|------------------------------------|
|------------------------------------|
|-7--7-7---7--7-7---7--7-7---7--7-7--|
|-7--7-7---7--7-7---7--7-7---7--7-7--|
|-7--7-7---7--7-7---7--7-7---7--7-7--|
  x  x x   x  x x   x  x x   x  x x

|Guitar 1 x4 1/2
|----------------------------------------|
|----------------------------------------|
|-10-10-10-10-2-2-2-2-7-7-7-7-7-7-7-7----|
|-10-10-10-10-2-2-2-2-7-7-7-7-7-7-7-7----|
|-10-10-10-10-2-2-2-2-7-7-7-7-7-7-7-7----|
|
|Guitar 2 (tremelo each note)
|----------------------------------------------------------------------------|
|----------------------------------------------------------------------------|
|-14-16-14--13-14--9~--14-16-14--13-14--14~--14-16-14--13-14--9-7--5~--------|
|----------------------------------------------------------------------------|
|----------------------------------------------------------------------------|
|----------------------------------------------------------------------------|
|
|--------------------------------------------|
|--------------------------------------------|
|-14-16-14--13-14--14~--14-16-14--13-14--14~-|
|--------------------------------------------|
|--------------------------------------------|
|--------------------------------------------|

|Guitar 1 x4(On fourth time dont play the part after the |)
|----------|----------------------------|
|----------|----------------------------|
|----------|-8-9-9--8-9-9--8-9-9--8-9-9-|
|-10---2---|-x-x-x--x-x-x--x-x-x--x-x-x-|
|-10---2---|-6-7-7--6-7-7--6-7-7--6-7-7-|
|-10---2---|----------------------------|
|
|Guitar 2 x4 (On fourth time dont play the part after the |)
|----------|----------------------------|
|----------|----------------------------|
|----------|-8-9-9--8-9-9--8-9-9--8-9-9-|
|-10---2---|-7-7-7--7-7-7--7-7-7--7-7-7-|
|-10---2---|-7-7-7--7-7-7--7-7-7--7-7-7-|
|-10---2---|-7-7-7--7-7-7--7-7-7--7-7-7-|
Comments