Mewithoutyou - Disaster Tourism Chords & Tabs

 

Disaster Tourism Chords & Tabs

Mewithoutyou Chords & Tabs

Version: 1 Type: Tab 0 ratings
1 star 2 stars 3 stars 4 stars 5 stars
comments

Disaster Tourism Tab

   
-------------------------------------------------------------------------------
			     DISASTER TOURISM - Mewithoutyou
-------------------------------------------------------------------------------
Tabbed by: Dave Riedstra
Email: dav0_12@hotmail.com

Tuning: Standard (EADGBe)

Notes: Though it says that this is just the intro, these are my  attempts at the
 most prominent riffs. I submitted it under intro because the intro riff was the
 one that I had down the most accurately, and I don't have the whole complete 
 song. The intro (in Guitar 1) is all straight eighth notes and sounds a bit like
 "Crazy Train". It continues throughout the first half of the song.

 This is NOT the first song I've tabbed, but it IS the first one I've put on the
 net, so email me with feedback, please. And no, I'm not asking you to "take it 
 easy on me"
   Enjoy!

Intro:
  Guitar 1 [distortion, reverb]
e|---------------------------------------------------------------------------|
B|---------------------------------------------------------------------------|
G|----------5----------------------------------------------------------------|
D|------7--------------------------------------------------------------------|
A|--3/5---5---5--8-8-8-7-7-7-5-5---------------------------------------------|
E|---------------------------------------------------------------------------|
 |
 |Guitar 2 [distortion, reverb, some funky effects that my amp didn't come with]
e|--12\--12--8---5-----5--5-8----5-8-5-8---{12}\-----------------------------|
B|--12\----------------------------------------------------------------------|
G|---------------------------------------------------------------------------|
D|---------------------------------------------------------------------------|
A|------------------------------------------------(Funky chord)--------------|
E|----------------------------------------------(slide up effect)------------|
[ Tab from: http://www.guitartabs.cc/tabs/m/mewithoutyou/disaster_tourism_tab.html ]
  Guitar 2 now plays some notes that I will hopefully tab out compeletely later
  while Guitar 1 keeps playing his riff. In the meantime, improvise with these:
  (same effects as above)
e|--5h7--8-5--5h7---(use 5-7-8-10-12 and work your way up slowly)------------|
B|---------------------------------------------------------------------------|
G|---------------------------------------------------------------------------|
D|---------------------------------------------------------------------------|
A|---------------------------------------------------------------------------|
E|---------------------------------------------------------------------------|

  Tremolo part. You can bend for {22} if you want, but I'm not sure if he does.
  Guitar 2 [distortion, reverb, repeats, among others]
e|--{17--19-20--17-19-20--22-20--19-17-19--17-19\}---------------------------|
B|---------------------------------------------------------------------------|
G|---------------------------------------------------------------------------|
D|---------------------------------------------------------------------------|
A|---------------------------------------------------------------------------|
E|---------------------------------------------------------------------------|

  This is where Guitar 1 breaks with his pattern and starts a different one.
  I'm not 100% sure on most of the notes, but the last few I'm pretty sure 
  are right.
  Guitar 1 [distortion, reverb]
e|--|-------------------------------------------------------------------------|
B|--|-------------------------------------------------------------------------|
G|--|.-2---------2---------2--------------------------------------------------|
D|-2|.---2p0---0---2p0---0---2p0---0------------------------------------------|
A|--|-------3---------3---------3------3---0----------------------------------|
E|--|-------------------------------------------------------------------------|

I don't know the outro yet either, but I'll see if I can tab it. It sounds nice.

| /  slide up
| \  slide down
| h  hammer-on
| p  pull-off
| ~  vibrato
| +  harmonic
| x  Mute note
| {} Tremolo
===============================================================================
Comments