Mewithoutyou - Bullet To Binary Chords & Tabs

 

Bullet To Binary Chords & Tabs

Mewithoutyou Chords & Tabs

Version: 1 Type: Tab 0 ratings
1 star 2 stars 3 stars 4 stars 5 stars
comments

Bullet To Binary Tab

Petey D.-Mxpxssml4@hotmail.com
Guitar 1 - plays for intro and first bit of verse (use tremelo pedal)(For second guitar
just play the bass line, in the cd version its to silent to tab out)
--x--x--x--x--x--x--x--x--x--x--x--x--x--x--x--x-|
--x--x--x-17--x-17--x--x--x-17--x-17--x--x-17-17-|
--x--x--x--x--x--x--x--x--x--x--x--x--x--x--x--x-|
-15-15-15-15-15-15-15-15-15-15-15-15-15-15-15-15-|   many times
--0--0--0--0--0--0--0--0--0--0--0--0--0--0--0--0-|
-------------------------------------------------|

Guitar 1
|-----------------------------------------------------------|
|-----------------------------------------------------------|
|----12b-----10-----12b-----10-----12b-----10-----10-----10-|
|0-0--x--0-0--x-0-0--x--0-0--x-0-0--x--0-0--x-0-0--x-0-0--x-|  x2
|0-0-10b-0-0--8-0-0-10b-0-0--8-0-0-10b-0-0--8-0-0--8-0-0--8-|
|0-0-----0-0----0-0-----0-0----0-0-----0-0----0-0----0-0----|
|
|Guitar 2
|----------------------------------------------------------|
|----------------------------------------------------------|
|----------------------------------------------------------|
|0-0-5b--0-0-3--0-0-5b--0-0-3--0-0-5b--0-0-3--0-0-3--0-0-3-|  x2
|0-0-5b--0-0-3--0-0-5b--0-0-3--0-0-5b--0-0-3--0-0-3--0-0-3-|
|0-0-5b--0-0-3--0-0-5b--0-0-3--0-0-5b--0-0-3--0-0-3--0-0-3-|

Guitar 1
|-----------------------------------------------------------------------------|
|-----------------------------------------------------------------------------|
|------12b~------10~-------12b~----10---10----------12b~------10~-------12b~--|
|-0-0---x~~--0-0--x~--0-0---x~~--0--x-0--x-0---0-0---x~~--0-0--x~--0-0---x~~--|
|-0-0--10b~--0-0--8~--0-0--10b~--0--8-0--8-0---0-0--10b~--0-0--8~--0-0--10b~--|
|-0-0--------0-0------0-0--------0----0----0---0-0--------0-0------0-0--------|
|
|Guitar 2
|----------------------------------------------------------------------------|
|----------------------------------------------------------------------------|
|----------------------------------------------------------------------------|
|-0-0-5b~--0-0-3~--0-0-5b~--0-3--0-3--0---0-0-5b~--0-0-3~--0-0-5b~--0-3--0-3-|
|-0-0-5b~--0-0-3~--0-0-5b~--0-3--0-3--0---0-0-5b~--0-0-3~--0-0-5b~--0-3--0-3-|
|-0-0-5b~--0-0-3~--0-0-5b~--0-3--0-3--0---0-0-5b~--0-0-3~--0-0-5b~--0-3--0-3-|
[ Tab from: http://www.guitartabs.cc/tabs/m/mewithoutyou/bullet_to_binary_tab.html ]
Guitar 1 + 2
------------------------------------------------------------------------|
------------------------------------------------------------------------|
-7-7-2-7--5-5-2-5--7-7-2-7--5-5-2-5--7-7-2-7--5-5-2-5--7-7-2-7--5-5-2-5-|
-7-7-2-7--5-5-2-5--7-7-2-7--5-5-2-5--7-7-2-7--5-5-2-5--7-7-2-7--5-5-2-5-|
-5-5-0-5--3-3-0-3--5-5-0-5--3-3-0-3--5-5-0-5--3-3-0-3--5-5-0-5--3-3-0-3-|
------------------------------------------------------------------------|

Guitar 1 - Play everything before | twice
-----------------------------------------|------------------------------------|
-----------------------------------------|------------------------------------|
16-16-16-16-16b-16-16-16b-16-16-16b-16-16|16-16-16-16-16b-16-16-16b-16-16-16--|b
-x--x--x--x--x---x--x--x---x--x--x---x--x|-x--x--x--x--x---x--x--x---x--x--x--|b
14-14-14-14-14b-14-14-14b-14-14-14b-14-14|14-14-14-14-14b-14-14-14b-14-14-14--|b
-----------------------------------------|------------------------------------|
|
Guitar 2
----------------------------|
----------------------------|
----------------------------|
-2-2------2-2-2-----2--2--2-|
-2-2------2-2-2-----2--2--2-|
-2-2------2-2-2-----2--2--2-|

|Guitar 1
|-------------------------|
|-------------------------|
|-16-16-16-16-16-16-16-16-|
|--x--x--x--x--x--x--x--x-|  x8 then play same thing as Guitar 2
|-14-14-14-14-14-14-14-14-|
|-------------------------|
|
|Guitar 2
|-----------------|
|-----------------|
|-----------------|
|-2~--0~--9~--9~--|
|-2~--0~--7~--7~--|
|-2~--0~--7~--7~--|

Guitar 1 (Guitar 2 just keeps playing the same as above)
-----------------------------------------------------------------------------|
-----------------------------------------------------------------------------|
-17-17-17/16--17-17-17/16--16/14---19-19-19/17--17-17-17/16--16/14-----------|
--x--x--x/-x---x--x--x/-x---x/-x----x--x--x/-x---x--x--x/-x---x/-x-----------|
-15-15-15/14--15-15-15/14--14/12---17-17-17/15--15-15-15/14--14/12-----------|
-----------------------------------------------------------------------------|

-------------------------------------------------------------------|
-------------------------------------------------------------------|
-21-21-21/19--19-19-19/17--17/16---17-17-17/16--17-17-17/16--16/14-|
--x--x--x/-x---x--x--x/-x---x/-x----x--x--x/-x---x--x--x/-x---x/-x-|
-19-19-19/17--17-17-17/15--15/14---15-15-15/14--15-15-15/14--14/12-|
-------------------------------------------------------------------|
Comments