Mew - Coffee Break Chords & Tabs

 

Coffee Break Chords & Tabs

Mew Chords & Tabs

Version: 1 Type: Tab 0 ratings
1 star 2 stars 3 stars 4 stars 5 stars
comments

Coffee Break Tab

   
Okey this is the song "Coffee Break" from mew's first album "half the world is watching me"
A few things missing, but listen to the song while playing then you got it! Enjoy
...Simon...( Disamed@hotmail.com )

Standard Tuning.
 
Intro  (Gm)
|----------------------------------------------------------|
|----------------------------------------------------------|
|--------------------3---3-3h2----3----3-2-/---7---7---7---|
|---------0--------0---0--------0----0----/--8----8---8----|
|----0----------------------------------/-6-----6---6------|
|-1-----3--------3----3-------1----1-----------------------| x2


|-----------------------------------------------|
|-----------------------------------------------|
|-----------3---3-3h2----3----3-2-/---7---7---7-|
|--------0----0-------0----0----/--8----8----8--|
|------------------------------/6-----6---6-----|
|-----3----3--------1----1----------------------|
    ^(Play this while those lyrics)^


Close the door when they come in. 
They can feel their whole world spin. 
Smoking plastic shards they'll never be scared of me. 
(I won't drown). 
And when they change themselves they're never afraid of me. 

[ Tab from: http://www.guitartabs.cc/tabs/m/mew/coffee_break_tab.html ]
Verse:(guitar 1)
|-------------------------------------------------|
|-------------------------------------------------|
|--7---7---7---6---6---6---4---4---4---6---6---6--|
|----0---0---0---0---0---0---0---0---0---0---0--0-|
|-------------------------------------------------|
|--7---7---7---5---5---5---3---3---3---5---5---5--|(through the verse)

(guitar 2)
|---------------------------------------------------------|
|-10---10--10--10---7---7----7---10---10---10---10---7----|
|----7---7---7----7---7---7----7----7----7----7----7----7-|
|---------------------------------------------------------|
|---------------------------------------------------------|(over and over)
|---------------------------------------------------------|

Summer's out for you. 
There's no time for you. 

It is not what it seems. 
You're awake in your dreams. 
With lithium you'll never be sad again. 
But you can't sleep with her.


(outro) (over and over again untill the end of the song)
|--------------------------------------------------------------------|
|--------------------------------------------------------------------|
|-11--11--11--11--14--14--14--11--11--11--11---14--14--14--11---11---|
|---12--12--12--12--12--12--12--12--12--12---12--12--12--12---12--12-|
|--------------------------------------------------------------------|
|--------------------------------------------------------------------|
 ^(Play this while those lyrics)^

It's not by choice, is it?
I hope you never come back. 
There's someone else in here. 
Please tell me why. Please tell me when. 
It's not by choice!


Thanks to Lasse!!

LOVE MEW FOREVER!!!





Comments