Mew - Am I Wry No Chords & Tabs

 

Am I Wry No Chords & Tabs

Mew Chords & Tabs

Version: 1 Type: Tab 0 ratings
1 star 2 stars 3 stars 4 stars 5 stars
comments

Am I Wry No Tab

Band: Mew
Song: Am I Wry? No
Official site: http://www.mewsite.com/
Tabbed by: Andrew Biles

Ok, this was a request on the tab team thread in Tab Talk, and I had it done
quite a while back but it doesn't appear to have been put up.  Maybe a couple
of small mistakes in the tab but hopefully nothing major, enjoy.

0:11
|-----------------------------------------------------------------------
|-8-------8-------10-----10------10-------10-------10-------10----------
|---10------10-------9------9-------10-------10-------10-------10----10-
|------10------10------10-----10-------10-------10-------10-------10----
|-----------------------------------------------------------------------
|-----------------------------------------------------------------------

0:26
|-8-----7-----5-
|-10----8-----6-
|-10----10----7-
|-10----10----7-
|-8-----7-----5-
|---------------
 only play sequence once, after that go back to the middle chord after Dm

1:37
|------------------------------------------------------------------------------------
|-8-------8-------8-10------10------10-10-------10-------10-10-----------10----10----
|---10------10---------9-------9----------10-------10----------10--10-10----10----10-
|------10------10--------10------10----------10-------10-----------------------------
|------------------------------------------------------------------------------------
|------------------------------------------------------------------------------------

1:53
|-8-----7-----5-----7--
|-10----8-----6-----8--
|-10----10----7-----10-
|-10----10----7-----10-
|-8-----7-----5-----7--
|----------------------

2:23
|-----------|-------|-----------|---------|-----------|-----------
|-----------|-------|-----------|---6---6-|-----------|-----------
|----9----9-|---9-7-|----9----9-|-----5---|----9----9-|-----------
|-10---10---|-7-----|-10---10---|-7-------|-10---10---|-8--/20-19-
|-----------|-------|-----------|---------|-----------|-----------
|-----------|-------|-----------|---------|-----------|-----------
each part repeated x4                              x2  ^tremelo pick and work out timing
[ Tab from: http://www.guitartabs.cc/tabs/m/mew/am_i_wry_no_tab.html ]
2:52
|-----------|---------|--------
|-----------|---6---6-|--------
|----9----9-|-----5---|--------
|-10---10---|-7-------|-8--/20-
|-----------|---------|--------
|-----------|---------|--------
          x8        x3 
3:10
|------------------------------------------------------------------------------------
|-8-------8-------8-10------10------10-10-------10-------10-10-----------10----10----
|---10------10---------9-------9----------10-------10----------10--10-10----10----10-
|------10------10--------10------10----------10-------10-----------------------------
|------------------------------------------------------------------------------------
|------------------------------------------------------------------------------------

3:24
|----------------------------------------------------------------------
|-8--8--8--8--8--8--10-10-10-10--10--8--8--8--8--8--8--8--8--8--8---8--
|-10-10-10-10-10-10-10-10-10-10--10--10-10-10-10-10-10-10-10-10-10--10-
|-10-10-10-10-10-10-10-10-10-10--10--10-10-10-10-10-10-10-10-10-10--10-
|----------------------------------------------------------------------
|----------------------------------------------------------------------

3:40 (acoustic)
all chords are strummed with exception of the last 4 (just played once each)
|-----------------------------------------------------
|-----------11-10----------------16--15--11-----------
|-10--------x--x----------10-----x---x---x--8-10-8-10-
|-x---------8--7----------x------13--12--8--x-x--x-x--
|-8-----------------------8-----------------6-8--6-8--
|-----------------------------------------------------
Diamond ring, diamond ring, but you .....

any questions? andrewbiles@hotmail.com
__________________________
Lyrics:

Farah, now that you're here
Can you tell me 
Exactly how I should have done? 
Farah drives with her eyes closed
Do you ever 
Inflict unwanted memories? 

I know you 
And I know it won't take you long 
To make me smile. 

Farah, angelic girl 
I'll have you 
Know it's you and me potentinally. 

Farah don't pull the carpet 
From under me
Indifference is killing me 

Am I wry? 
Oh my! Fallacy! 
Fallacy in my words
Am I wry? 

I know you 
And I know you're not afraid 
To say the least 

Diamond ring, diamond ring
But you can't find it
Cold is the night 

Diamond ring, diamond ring
But you can't find it
Cold is the night
Comments