Metric - Empty Chords & Tabs

 

Empty Chords & Tabs

Metric Chords & Tabs

Version: 2 Type: Tab 0 ratings
1 star 2 stars 3 stars 4 stars 5 stars
comments

Empty Tab

   
Tabbed by:CMM
Email:colin_michael_muppet@hotmail.com
	
Tuning: Standard

(Intro/Outro pt.One)
e|----------------------------------------------------------------------|
B|----------------------------------------------------------------------|
G|-------2-------0-------2--------4\------------------------------------|
D|-----0---0---0---0---0---0----0---------4-------4-------4-------2-----|
A|--------------------------------------2---2---2---2---2---2---2---2---|
E|---3-------3-------3-------/5-------0-------0-------0-------0---------|

(Intro/Outro pt.Two)
e|-------------------------------------------------------------------------|
B|-------------------------------------------------------------------------|
G|-----0-------0-------0-------0-------0-------0-------0-------0-------0---|
D|---2---2---2---2---2---2---2---2---4---4---4---4---4---4---4---4---2---2-|
A|-3-------3-------3-------3-------5-------5-------5-------5-------3-------|
E|-------------------------------------------------------------------------|
[ Tab from: http://www.guitartabs.cc/tabs/m/metric/empty_tab_ver_2.html ]
e|-------------------------------------------------------------|
B|-------------------------------------------------------------|
G|------0-------0-------0-------0-------0-------0-------0------|
D|----2---2---2---2---2---2---0---0---0---0---4---4---4---4----|
A|--3-------3-------3-------2-------2-------5-------5----------|
E|-------------------------------------------------------------|

NOTE: Repeated twice, then goes to Pt.Two ending.

(Pt.Two ending)
e|--------------------------------------------------------------|
B|--------------------------------------------------------------|
G|-----0-------0-------0-------0-------0-------0-------0--------|
D|---5---5---5---5---5---5---5---5---5---5---5---5---5---5------|
A|-7-------7-------7-------7-------7-------7-------7-------7----|
E|--------------------------------------------------------------|

("Chorus")
e|-------------------------------------------------------------------------|
B|-------------------------------------------------------------------------|
G|---------------------------------------------5--5--x-x-------------5--5--|
D|-3-3-3-3-3-3-3-3-3-3-3-3-3-3-3-3--7--7--x-x--5--5--x-x--5--5--x-x--5--5--|
A|-3-3-3-3-3-3-3-3-3-3-3-3-3-3-3-3--7--7--x-x--3--3--x-x--5--5--x-x--3--3--|
E|-1-1-0-0-1-1-0-0-1-1-0-0-1-1-0-0--5--5--x-x-------------3--3--x-x--------|

NOTE: The solo is is just a alot of bending on the high e string twelth fret
to F while tremelo picking and hammering on and off to A before descending the
guitar in essentially the key of C with bends thrown in here and there. Improvise.

| /  slide up
| \  slide down
| h  hammer-on
| p  pull-off
| ~  vibrato
| +  harmonic
| x  Mute note
===============================================================================
Comments