Meters - They All Askd For You Chords & Tabs

 

They All Askd For You Chords & Tabs

Meters Chords & Tabs

Version: 2 Type: Bass Tab 0 ratings
1 star 2 stars 3 stars 4 stars 5 stars
comments

They All Askd For You Bass Tab

Song Title:   They All Ask'd For You
Group:        The Meters
Bass Player:  George Porter, Jr.
Bass Tab by:  SCube

(intro)
|------|
|----1-|
|2-4---|
|------|

|----------------|----------------|----------------|----------------|
|2-------2-----1-|2-------2-----1-|2-------2-----1-|2-------2-----1-|
|----2-----2-4---|----2-----2-4---|----2-----2-4---|----2-----2-4---|
|----------------|----------------|----------------|----------------|

|----------------|----------------|----------------|----------------|
|2-------2-----1-|2-------2-----1-|2-------2-----1-|2-------2-----1-|
|----2-----2-4---|----2-----2-4---|----2-----2-4---|----2-----2-4---|
|----------------|----------------|----------------|----------------|


|----------------|----------------|4-------4-------|4---------------|
|2-------2-------|2---1-------4---|----4-------4---|----4---2-----1-|
|----2-------2---|------4-2-------|----------------|----------2-4---|
|----------------|----------------|----------------|----------------|

|----------------|----------------|----------------|442-1-----------|
|2-------2-------|2---1-------4---|----4-------4---|------4-2-----1-|
|----2-------2---|------4-2-------|2-------2-------|----------2-4---|
|----------------|----------------|----------------|----------------|

|----------------|----------------|4-------4-------|4---------------|
|2-------2-------|2---1-------4---|----4-------4---|----4---2-----1-|
|----2-------2---|------4-2-------|----------------|----------2-4---|
|----------------|----------------|----------------|----------------|

|----------------|----------------|4-------4-------|442-1-----------|
|2-------2-------|2---1-------4---|----4-------4---|------4-2-----1-|
|----2-------2---|------4-2-------|----------------|----------2-4---|
|----------------|----------------|----------------|----------------|

(interlude)
|----------------|----------------|
|2-------221-----|2-------221-----|
|----2-------4-2-|----2-------4-2-|
|----------------|----------------|

|----------------|----------------|----------------|----------------|
|2-------2-----1-|2-------2-----1-|2-------2-----1-|2-------2-----1-|
|----2-----2-4---|----2-----2-4---|----2-----2-4---|----2-----2-4---|
|----------------|----------------|----------------|----------------|


|----------------|----------------|----------------|----------------|
|2-------2-------|2---1-------4---|----4-------4---|----4---2-----1-|
|----2-------2---|------4-2-------|2-------2-------|2---------2-4---|
|----------------|----------------|----------------|----------------|
[ Tab from: http://www.guitartabs.cc/tabs/m/meters/they_all_askd_for_you_btab_ver_2.html ]
|----------------|----------------|4-------4-------|442-1-----------|
|2-------2-------|2---1-------4---|----4-------4---|------4-2-----1-|
|----2-------2---|------4-2-------|----------------|----------2-4---|
|----------------|----------------|----------------|----------------|

|----------------|----------------|--------4-------|4---------------|
|2-------2-------|2---1-------4---|----4-------4---|----4---2-----1-|
|----2-------2---|------4-2-------|2---------------|----------2-4---|
|----------------|----------------|----------------|----------------|

|----------------|----------------|4-------4-------|442-1-----------|
|2-------2-------|2---1-------4---|----4-------4---|------4-2-----1-|
|----2-------2---|------4-2-------|----------------|----------2-4---|
|----------------|----------------|----------------|----------------|

(interlude)
|----------------|----------------|
|2-------221-----|2-------221-----|
|----2-------4-2-|----2-------4-2-|
|----------------|----------------|

|----------------|----------------|----------------|----------------|
|2-------2-----1-|2-------2-----1-|2-------2-----1-|2-------2-----1-|
|----2-----2-4---|----2-----2-4---|----2-----2-4---|----2-----2-4---|
|----------------|----------------|----------------|----------------|

|----------------|----------------|----------------|----------------|
|2-------2-----1-|2-------2-----1-|2-------2-----1-|2-------2-----1-|
|----2-----2-4---|----2-----2-4---|----2-----2-4---|----2-----2-4---|
|----------------|----------------|----------------|----------------|


|----------------|----------------|----------------|----------------|
|2-------2-------|2---1-------4---|----4-------4---|----4---2-----1-|
|----2-------2---|------4-2-------|2-------2-------|2---------2-4---|
|----------------|----------------|----------------|----------------|

|----------------|----------------|4-------4-------|442-1-----------|
|2-------2-------|2---1-------4---|----4-------4---|------4-2-----1-|
|----2-------2---|------4-2-------|----------------|----------2-4---|
|----------------|----------------|----------------|----------------|

|----------------|----------------|4-------4-------|4---------------|
|2-------2-------|2--21-------4---|----4-------4---|------1-2-----1-|
|----2-------2---|------4-2------2|----------------|--2-------2-4---|
|----------------|----------------|----------------|----------------|

|----------------|----------------|4-------4-------|4---------------|
|2-------2-------|2---1-------4---|----4-------4---|----4---2-----1-|
|----2-------2---|------4-2-------|----------------|----------2-4---|
|----------------|----------------|----------------|----------------|
 
|----------------|----------------|4-------4-------|----------------|
|2-------2-----1-|2--21-------4--4|----4------24---|----1-2-2456--2-|
|----2--5--2-4---|------4-2-------|--------------2-|-24-------------|
|----------------|----------------|----------------|----------------|

|----------------|----------------|
|----22--2---2---|----------------|
|----------------|----------------|
|----------------|0---------------|

Comments