Meters - People Say Chords & Tabs

 

People Say Chords & Tabs

Meters Chords & Tabs

Version: 2 Type: Bass Tab 0 ratings
1 star 2 stars 3 stars 4 stars 5 stars
comments

People Say Bass Tab

Song Title:   People Say
Group:        The Meters
Bass Player:  George Porter, Jr.
Bass Tab by:  SCube

(guitar intro)
|----------------|----------------|----------------|----------------|
|----------------|----------------|----------------|----------------|
|----------------|----------------|----------------|----------------|
|----------------|----------------|----------------|----------------|
(drums enter)
|----------------|----------------|----------------|----------------|
|----------------|----------------|----------------|----------------|
|----------------|----------------|----------------|----------------|
|----------------|----------------|----------------|----------------|
(bass enters)
|--------------7-|----------------|--------------7-|----------------|
|----------------|----------------|----------------|----------------|
|5---8---5-5-----|5---------------|5---8-8-5-5-----|5---------------|
|----------------|----------------|----------------|----------------|

|--------------7-|----------------|--------------7-|----------------|
|----------------|----------------|----------------|----------------|
|5---8-8-5-5-----|5---------------|5---8-8-5-5-----|5---------------|
|----------------|----------------|----------------|----------------|

|--------------7-|----------------|--------------7-|----------------|
|----------------|----------------|----------------|----------------|
|5---8-8-5-5-----|5---------------|5---8-8-5-5-----|5---------------|
|----------------|----------------|----------------|----------------|

|--------------7-|----------------|--------------7-|----------------|
|----------------|----------------|----------------|----------------|
|5---8-8-5-5-----|5---------------|5---8-8-5-5-----|5---------------|
|----------------|----------------|----------------|----------------|

|--------------7-|----------------|--------------7-|----------------|
|----------------|----------------|----------------|----------------|
|5---8-8-5-5-----|5---------------|5---8-8-5-5-----|5---------------|
|----------------|----------------|----------------|----------------|

|--------------7-|----------------|--------------7-|----------------|
|----------------|----------------|----------------|----------------|
|5---8-8-5-5-----|5---------------|5---8-8-5-5-----|5---------------|
|----------------|----------------|----------------|----------------|

(chorus)
|----------------|----------------|----------------|----------------|
|----------------|----------------|----------------|----------------|
|----------------|----------------|5--55-----------|5--55-----------|
|3--33-----------|3--33-----------|----------------|----------------|

|----------------|----------------|----------------|----------------|
|----------------|----------------|----------------|----------------|
|----------------|----------------|5--55-----------|5--55-----------|
|3--33-----------|3--33-----------|----------------|----------------|

|----------------|----------------|
|----------------|----------------|
|----------------|----------------|
|3--33-----------|3--33-----------|


|--------------7-|----------------|--------------7-|----------------|
|----------------|----------------|----------------|----------------|
|5---8-8-5-5-----|5---------------|5---8-8-5-5-----|5---------------|
|----------------|----------------|----------------|----------------|

|--------------7-|----------------|--------------7-|----------------|
|----------------|----------------|----------------|----------------|
|5---8-8-5-5-----|5---------------|5---8-8-5-5-----|5---------------|
|----------------|----------------|----------------|----------------|

|--------------7-|----------------|--------------7-|----------------|
|----------------|----------------|----------------|----------------|
|5---8-8-5-5-----|5---------------|5---8-8-5-5-----|5---------------|
|----------------|----------------|----------------|----------------|

|--------------7-|----------------|--------------7-|----------------|
|----------------|----------------|----------------|----------------|
|5---8-8-5-5-----|5---------------|5---8-8-5-5-----|5---------------|
|----------------|----------------|----------------|----------------|

|--------------7-|----------------|--------------7-|----------------|
|----------------|----------------|----------------|----------------|
|5---8-8-5-5-----|5---------------|5---8-8-5-5-----|5---------------|
|----------------|----------------|----------------|----------------|
[ Tab from: http://www.guitartabs.cc/tabs/m/meters/people_say_btab_ver_2.html ]
|--------------7-|----------------|--------------7-|----------------|
|----------------|----------------|----------------|----------------|
|5---8-8-5-5-----|5---------------|5---8-8-5-5-----|5---------------|
|----------------|----------------|----------------|----------------|

(chorus)
|----------------|----------------|----------------|----------------|
|----------3--4--|----------3--4--|----------------|----------------|
|----------------|----------------|5--55-----------|5--55-----------|
|3--33-----------|3--33-----------|----------------|----------------|

|----------------|----------------|----------------|----------------|
|----------3--4--|----------3--4--|----------------|----------------|
|----------------|----------------|5--55-----------|5--55-----------|
|3--33-----------|3--33-----------|----------------|----------------|

|----------------|----------------|--5-75----------|------------|
|----------3--4--|--------------56|77-7--765-------|----3-------|
|----------------|----------------|---------5785---|--3--53----4|
|3--33-----------|3--33-----------|--------------34|55-5---5431-|


|--------------7-|----------------|--------------7-|----------------|
|----------------|----------------|----------------|----------------|
|5---8-8-5-5-----|5---------------|5---8-8-5-5-----|5---------------|
|----------------|----------------|----------------|----------------|

|--------------9-|----------------|--------------9-|----------------|
|----5-5---------|----------------|----5-5---------|----------------|
|7-------7-7-----|7---------------|7-------7-7-----|7---------------|
|----------------|----------------|----------------|----------------|

|--------------9-|----------------|--------------9-|----------------|
|----5-5---------|----------------|----5-5---------|----------------|
|7-------7-7-----|7---------------|7-------7-7-----|7---------------|
|----------------|----------------|----------------|----------------|

|--------------9-|----------------|--------------9-|----------------|
|----5-5---------|----------------|----5-5---------|----------------|
|7-------7-7-----|7---------------|7-------7-7-----|7---------------|
|----------------|----------------|----------------|--------8-------|

|--------------7-|----------------|--------------7-|----------------|
|----------------|----------------|----------------|----------------|
|5---8-8-5-5-----|5---------------|5---8-8-5-5-----|5---------------|
|----------------|----------------|----------------|----------------|

|--------------7-|----------------|--------------7-|----------------|
|----------------|----------------|----------------|----------------|
|5---8-8-5-5-----|5---------------|5---8-8-5-5-----|5---------------|
|----------------|----------------|----------------|----------------|

|--------------7-|----------------|--------------7-|----------------|
|----------------|----------------|----------------|----------------|
|5---8-8-5-5-----|5---------------|5---8-8-5-5-----|5---------------|
|----------------|----------------|----------------|----------------|

|--------------7-|----------------|--------------7-|----------------|
|----------------|----------------|----------------|----------------|
|5---8-8-5-5-----|5---------------|5---8-8-5-5-----|5---------------|
|----------------|----------------|----------------|----------------|

|--------------7-|----------------|--------------7-|----------------|
|----------------|----------------|----------------|----------------|
|5---8-8-5-5-----|5---------------|5---8-8-5-5-----|5---------------|
|----------------|----------------|----------------|----------------|

|--------------7-|----------------|--------------7-|----------------|
|----------------|----------------|----------------|----------------|
|5---8-8-5-5-----|5---------------|5---8-8-5-5-----|5---------------|
|----------------|----------------|----------------|----------------|

(chorus)
|----------------|----------------|----------------|----------------|
|----------3--4--|----------3--4--|----------------|----------3--4--|
|----------------|----------------|5--55-----3--4--|5--55-----------|
|3--33-----------|3--33-----------|----------------|----------------|

|----------------|----------------|----------------|----------------|
|5--55-----3--4--|5--55-----------|----------------|----------3--4--|
|----------------|----------------|5--55-----3--4--|5--55-----------|
|----------------|----------1--3--|----------------|----------------|

|----------------|----------------|----------------|----------------|
|5--55-----3--4--|5--55-----------|----------------|----------3--4--|
|----------------|----------3--4--|5--55-----3--4--|5--55-----------|
|----------------|----------------|----------------|----------------|

|----------------|----------------|----------------|----------------|
|5--55-----------|----------------|----------3--4--|----------3--4--|
|-------------3--|----------3--4--|5--55-----------|5--55-----------|
|----------------|3--33-----------|----------------|----------------|

play variations as song fades out

Comments