Meters - Hey Pocky A-way Chords & Tabs

 

Hey Pocky A-way Chords & Tabs

Meters Chords & Tabs

Version: 2 Type: Bass Tab 0 ratings
1 star 2 stars 3 stars 4 stars 5 stars
comments

Hey Pocky A-way Bass Tab

   
Song Title:   Hey Pocky A-Way
Group:        The Meters
Bass Player:  George Porter, Jr.
Bass Tab by:  SCube

(drum intro)
|----------------|
|----------------|
|----------------|
|----------------|

(piano enters)
|----------------|----------------|----------------|----------------|
|----------------|----------------|----------------|----------------|
|----------------|----------------|----------------|----------------|
|----------------|----------------|----------------|----------------|

(bass enters)
       h      h      h    h      h
|-----57----1011---|-----57----1011---|
|------------ - ---|-----------0 - ---|
|5----------- - ---|35---------- - ---|
|------------ - ---|------------ - ---|

(verse 1)
|----------------|----------------|----------------|----------------|
|----------------|----------------|----------------|----------------|
|55---2345--------|55-2345--------|55--2345--------|55--2345--------|
|---5------------|---5------------|---5------------|---5------------|

|----------------|----------------|----------------|----------------|
|----------------|----------------|----------------|----------------|
|55--2345--------|55--2345--------|55--2345--------|55--2345--------|
|---5----------5-|---5------------|---5----------5-|---5------------|

(chorus)
|----------------|----------------|----------------|----------------|
|----------------|----------------|----------------|----------------|
|55--2345--------|55--2345--------|2---------------|55--2345--------|
|---5------------|---5----------5-|--------3-------|---5------------|

|----------------|----------------|----------------|----------------|
|----------------|----------------|----------------|----------------|
|5--3------------|5--3------------|5--3------------|5--3------------|
|------3---------|------3---------|------3---------|------3---------|

(verse 2)
|----------------|----------------|----------------|----------------|
|----------------|----------------|----------------|----------------|
|55--2345--------|55--2345--------|55--2345--------|55--2345--------|
|---5----------5-|---5------------|---5----------5-|---5------------|

|----------------|----------------|----------------|----------------|
|----------------|----------------|----------------|----------------|
|55--2345--------|55--2345--------|55--2345--------|55--2345--------|
|---5----------5-|---5------------|---5----------5-|---5------------|

(chorus)
|----------------|----------------|----------------|----------------|
|----------------|----------------|----------------|----------------|
|55--2345--------|55--2345--------|2---------------|55--2345--------|
|---5------------|---5----------5-|--------3-------|---5------------|

|----------------|----------------|----------------|----------------|
|----------------|----------------|----------------|----------------|
|5--3------------|5--3------------|5--3------------|5--3------------|
|------3---------|------3---------|------3---------|------3---------|
[ Tab from: http://www.guitartabs.cc/tabs/m/meters/hey_pocky_a_way_btab_ver_2.html ]
(intermission)
|----------------|----------------|----------------|----------------|
|----------------|----------------|----------------|----------------|
|----------------|----------------|----------------|----------------|
|----------------|----------------|----------------|----------------|

|----------------|----------------|----------------|----------------|
|----------------|----------------|----------------|----------------|
|----------------|----------------|----------------|----------------|
|----------------|----------------|----------------|----------------|

|----------------|----------------|----------------|----------------|
|----------------|----------------|----------------|----------------|
|2---------------|55--2345--------|55--2345--------|55--2345--------|
|--------3-------|---5------------|---5----------5-|---5----------5-|

|----------------|----------------|----------------|----------------|
|----------------|----------------|----------------|----------------|
|55--2345--------|55--2345--------|55--2345--------|55--2345--------|
|---5------------|---5------------|---5------------|---5----------5-|

|----------------|----------------|----------------|----------------|
|----------------|----------------|----------------|----------------|
|55--2345--------|55--2345--------|55--2345--------|55--2345--------|
|---5----------5-|---5------------|---5----------5-|---5------------|

|----------------|----------------|----------------|----------------|
|----------------|----------------|----------------|----------------|
|55--2345--------|55--2345--------|55--2345--------|55--2345--------|
|---5----------5-|---5------------|---5----------5-|---5------------|

(verse 3)
|----------------|----------------|----------------|----------------|
|----------------|----------------|----------------|----------------|
|55--2345--------|55--2345--------|55--2345--------|55--2345--------|
|---5------------|---5------------|---5----------5-|---5------------|

|----------------|----------------|----------------|----------------|
|----------------|----------------|----------------|----------------|
|55--2345--------|55--2345--------|55--2345--------|55--2345--------|
|---5------------|---5----------5-|---5------------|---5----------5-|

(chorus)
|----------------|----------------|----------------|----------------|
|----------------|----------------|----------------|----------------|
|55--2345--------|55--2345--------|55--2345--------|55--2345--------|
|---5------------|---5----------5-|--------3-------|---5------------|

|----------------|----------------|----------------|----------------|
|----------------|----------------|----------------|----------------|
|5--3------------|5--3------------|5--3------------|5--3------------|
|------3---------|------3---------|------3---------|------3---------|

(outro)
              h
|-----------1011---|----------------|----------------|----------------|
|------------ - ---|----------------|----------------|----------------|
|55--2345---- - ---|55--2345--------|55--2345--------|55--2345--------|
|---5-------- - ---|---5------------|---5----------5-|---5------------|

|----------------|----------------|----------------|----------------|
|----------------|----------------|----------------|----------------|
|55--2345--------|55--2345--------|55--2345--------|55--2345--------|
|---5------------|---5------------|---5----------5-|---5------------|

continue to play as song fades out


Comments