Metallica - Whiskey In The Jar Chords & Tabs

 

Whiskey In The Jar Chords & Tabs

Metallica Chords & Tabs

Version: 6 Type: Tab 0 ratings
1 star 2 stars 3 stars 4 stars 5 stars
comments

Whiskey In The Jar Tab

   
Not saying that the others are wrong but this way is much easier
---------------------------------------------------------------
**DROP D TUNING**DROP D TUNING**DROP D TUNING**DROP D TUNING**
---------------------------------------------------------------
m= the way i do it is to kind of mute the ringing with my palm by 
slapping it down on the strings

h= hammer on

b=bend 

u= bend up towards your top string (low E)

d= bend down towards your bottom string (high E)

Guitar 1- remember drop D
--------------------------------------------------------------
--------------------------------------------------------------
--------------------------------------------------------------
-3--2--0-0-m-0-0-0-m-0-0-0-m-0-0-0-m-0-3-3-m-3-3-3-m-3-3-3-m--
-3--2--0-0-m-0-0-0-m-0-0-0-m-0-0-0-m-0-3-3-m-3-3-3-m-3-3-3-m--
-3--2--0-0-m-0-0-0-m-0-0-0-m-0-0-0-m-0-3-3-m-3-3-3-m-3-3-3-m--
[ Tab from: http://www.guitartabs.cc/tabs/m/metallica/whiskey_in_the_jar_tab_ver_6.html ]
--------------------------------------------------------------
--------------------------------------------------------------
--------------------------------------------------------------
-3-3-2-0-0---------NOW REPEAT IT
-3-3-2-0-0---------
-3-3-2-0-0---------

it's easier to play if u just to keep your finger on the that third string

Guitar 2 
-3-3-3-3h5-6-3-5---3-6--------3-3-3-3h5-6-3-5---3-6---6-6--
-----------------5----------------------------5------------
-----------------------------------------------------------
-----------------------------------------------------------
-----------------------------------------------------------
-----------------------------------------------------------

-3-3-3-3h5--6-3-5---3-6------------------------------------
------------------5----------------------------------------
-------------------------------------5---------------------
-----------------------------3-3-3h5---3-5-3-5b(d,u,d,u)-3-
-----------------------------------------------------------
-----------------------------------------------------------


Any comments or additions to it i'd be glad to here 
E-mail me kyles783@hotmail.com

p.s any guitar players from around bridgewater Nova scotia gimmie a shout if your
interested in joining a band

peace out $kyle$
Comments