Metallica - Whiskey In The Jar Chords & Tabs

 

Whiskey In The Jar Chords & Tabs

Metallica Chords & Tabs

Version: 3 Type: Tab 6 ratings
1 star 2 stars 3 stars 4 stars 5 stars
comments

Whiskey In The Jar Tab

   
                                                                            
E||--------------------|----------------------|----------------------------|
B||--------------------|----------------------|------------------8---------|
G||--------------------|----------------------|--7--7--7--9--11-----9--11--|
D||----------5----4----|--2----2----2----2----|----------------------------|
A||----------5----4----|--2----2----2----2----|----------------------------|
E||----------3----2----|--0----0----0----0----|----------------------------|


                                                                         
---------------------|----------------------------|---------------------|
--------8------------|------------------8---------|--------8------------|
--7--9---------------|--7--7--7--9--11-----9--11--|--7--9---------------|
---------------------|----------------------------|---------------------|
---------------------|----------------------------|---------------------|
---------------------|----------------------------|---------------------|


                                                                
----------------------------------|----------------------------|
--------------12--12--------------|----------------------------|
----------12----------14b-14r-12--|--14--12----------12--------|
--12--14--------------------------|----------14--12------------|
----------------------------------|----------------------------|
----------------------------------|----------------------------|


                                                                         
-------------------------|-------------------|--------------------------|
-------------------------|-------------------|--------------------------|
-------------------------|-------------------|--------------------------|
--7--7--9r-9--7--10------|--5----------------|--5--5--x--5--5--5--x--5--|
-------------------------|-------------------|--5--5--x--5--5--5--x--5--|
-------------------------|-------------------|--3--3--x--3--3--3--x--3--|


                                                      
--------------------------|--------------------------|
--------------------------|--------------------------|
--------------------------|--------------------------|
--5--5--x--5--5--5--5--2--|--2--2--x--2--2--2--x--2--|
--5--5--x--5--5--5--5--2--|--2--2--x--2--2--2--x--2--|
--3--3--x--3--3--3--3--0--|--0--0--x--0--0--0--x--0--|


                                                      
--------------------------|--------------------------|
--------------------------|--------------------------|
-----------------------5--|--5--5--x--5--5--5--x--5--|
--2--2--x--2--2--2--2--5--|--5--5--x--5--5--5--x--5--|
--2--2--x--2--2--2--2--3--|--3--3--x--3--3--3--x--3--|
--0--0--x--0--0--0--0-----|--------------------------|


                                                      
--------------------------|--------------------------|
--------------------------|--------------------------|
--5--5--x--5--5--5--x--5--|--------------------------|
--5--5--x--5--5--5--x--5--|--5--5--x--5--5--5--x--5--|
--3--3--x--3--3--3--x--3--|--5--5--x--5--5--5--x--5--|
--------------------------|--3--3--x--3--3--3--x--3--|


                                                                               
--------------------------|------------------------|--------------------------|
--------------------------|------------------------|--------------------------|
--------------------------|------------------------|--------------------------|
--5--5--x--5--5--5--x--5--|--5--5--x--5--5----4----|--2--2--x--2--2--2--x--2--|
--5--5--x--5--5--5--x--5--|--5--5--x--5--5----5----|--2--2--x--2--2--2--x--2--|
--3--3--x--3--3--3--x--3--|--3--3--x--3--3----3----|--0--0--x--0--0--0--x--0--|


                                                      
--------------------------|--------------------------|
--------------------------|--------------------------|
-----------------------5--|--5--5--x--5--5--5--x--5--|
--2--2--x--2--2--2--2--5--|--5--5--x--5--5--5--x--5--|
--2--2--x--2--2--2--2--3--|--3--3--x--3--3--3--x--3--|
--0--0--x--0--0--0--0-----|--------------------------|


                                                      
--------------------------|--------------------------|
--------------------------|--------------------------|
--5--5--x--5--5--5--x--5--|--------------------------|
--5--5--x--5--5--5--x--5--|--5--5--x--5--5--5--x--5--|
--3--3--x--3--3--3--x--3--|--5--5--x--5--5--5--x--5--|
--------------------------|--3--3--x--3--3--3--x--3--|


                                                                                
----------------------------|---------------------|----------------------------|
------------------8---------|--------8------------|------------------8---------|
--7--7--7--9--11-----9--11--|--7--9---------------|--7--7--7--9--11-----9--11--|
----------------------------|---------------------|----------------------------|
----------------------------|---------------------|----------------------------|
----------------------------|---------------------|----------------------------|


                                                         
---------------------|----------------------------------|
--------8------------|--------------12--12--------------|
--7--9---------------|----------12----------14b-14r-12--|
---------------------|--12--14--------------------------|
---------------------|----------------------------------|
---------------------|----------------------------------|


                                                                           
----------------------------|-------------------------|-------------------|
----------------------------|-------------------------|-------------------|
--14--12----------12--------|-------------------------|-------------------|
----------14--12------------|--7--7--9r-9--7--10------|--5----------------|
----------------------------|-------------------------|-------------------|
----------------------------|-------------------------|-------------------|


                                                      
--------------------------|--------------------------|
--------------------------|--------------------------|
--------------------------|--------------------------|
--5--5--x--5--5--5--x--5--|--5--5--x--5--5--5--5--2--|
--5--5--x--5--5--5--x--5--|--5--5--x--5--5--5--5--2--|
--3--3--x--3--3--3--x--3--|--3--3--x--3--3--3--3--0--|


                                                      
--------------------------|--------------------------|
--------------------------|--------------------------|
--------------------------|-----------------------5--|
--2--2--x--2--2--2--x--2--|--2--2--x--2--2--2--2--5--|
--2--2--x--2--2--2--x--2--|--2--2--x--2--2--2--2--3--|
--0--0--x--0--0--0--x--0--|--0--0--x--0--0--0--0-----|


                                                      
--------------------------|--------------------------|
--------------------------|--------------------------|
--5--5--x--5--5--5--x--5--|--5--5--x--5--5--5--x--5--|
--5--5--x--5--5--5--x--5--|--5--5--x--5--5--5--x--5--|
--3--3--x--3--3--3--x--3--|--3--3--x--3--3--3--x--3--|
--------------------------|--------------------------|


                                                                               
--------------------------|--------------------------|------------------------|
--------------------------|--------------------------|------------------------|
--------------------------|--------------------------|------------------------|
--5--5--x--5--5--5--x--5--|--5--5--x--5--5--5--x--5--|--5--5--x--5--5----4----|
--5--5--x--5--5--5--x--5--|--5--5--x--5--5--5--x--5--|--5--5--x--5--5----5----|
--3--3--x--3--3--3--x--3--|--3--3--x--3--3--3--x--3--|--3--3--x--3--3----3----|


                                                      
--------------------------|--------------------------|
--------------------------|--------------------------|
--------------------------|-----------------------5--|
--2--2--x--2--2--2--x--2--|--2--2--x--2--2--2--2--5--|
--2--2--x--2--2--2--x--2--|--2--2--x--2--2--2--2--3--|
--0--0--x--0--0--0--x--0--|--0--0--x--0--0--0--0-----|


                                                      
--------------------------|--------------------------|
--------------------------|--------------------------|
--5--5--x--5--5--5--x--5--|--5--5--x--5--5--5--x--5--|
--5--5--x--5--5--5--x--5--|--5--5--x--5--5--5--x--5--|
--3--3--x--3--3--3--x--3--|--3--3--x--3--3--3--x--3--|
--------------------------|--------------------------|


                                                                             
--------------------------|----------------------0--|-------3----0----------|
--------------------------|-------------3--1--------|--1--------------------|
--------------------------|----------0--------0-----|-----------------0--0--|
--5--5--x--5--5--5--x--5--|-------2-----------------|-----------------------|
--5--5--x--5--5--5--x--5--|--3----------------------|-----------------3--3--|
--3--3--x--3--3--3--x--3--|-------------------------|-----------------------|


                                                                             
--------------------0----|-------3----0----------|--------------------------|
--------1--3--1----------|--1--------------------|--------------------------|
--0--0-----------0-------|-----------------------|--------------------------|
-------------------------|-----------------5--5--|--5--5--x--5--5--5--x--5--|
--3----------------------|-----------------5--5--|--5--5--x--5--5--5--x--5--|
-------------------------|-----------------3--3--|--3--3--x--3--3--3--x--3--|


                                                                                
----------------------------|---------------------|----------------------------|
------------------8---------|--------8------------|------------------8---------|
--7--7--7--9--11-----9--11--|--7--9---------------|--7--7--7--9--11-----9--11--|
----------------------------|---------------------|----------------------------|
----------------------------|---------------------|----------------------------|
----------------------------|---------------------|----------------------------|


                                                         
---------------------|----------------------------------|
--------8------------|--------------12--12--------------|
--7--9---------------|----------12----------14b-14r-12--|
---------------------|--12--14--------------------------|
---------------------|----------------------------------|
---------------------|----------------------------------|


                                                                           
----------------------------|-------------------------|-------------------|
----------------------------|-------------------------|-------------------|
--14--12----------12--------|-------------------------|-------------------|
----------14--12------------|--7--7--9r-9--7--10------|--5----------------|
----------------------------|-------------------------|-------------------|
----------------------------|-------------------------|-------------------|


                                                      
--------------------------|--------------------------|
--------------------------|--------------------------|
--------------------------|--------------------------|
--5--5--x--5--5--5--x--5--|--5--5--x--5--5--5--5--2--|
--5--5--x--5--5--5--x--5--|--5--5--x--5--5--5--5--2--|
--3--3--x--3--3--3--x--3--|--3--3--x--3--3--3--3--0--|


                                                      
--------------------------|--------------------------|
--------------------------|--------------------------|
--------------------------|-----------------------5--|
--2--2--x--2--2--2--x--2--|--2--2--x--2--2--2--2--5--|
--2--2--x--2--2--2--x--2--|--2--2--x--2--2--2--2--3--|
--0--0--x--0--0--0--x--0--|--0--0--x--0--0--0--0-----|


                                                      
--------------------------|--------------------------|
--------------------------|--------------------------|
--5--5--x--5--5--5--x--5--|--5--5--x--5--5--5--x--5--|
--5--5--x--5--5--5--x--5--|--5--5--x--5--5--5--x--5--|
--3--3--x--3--3--3--x--3--|--3--3--x--3--3--3--x--3--|
--------------------------|--------------------------|


                                                                               
--------------------------|--------------------------|------------------------|
--------------------------|--------------------------|------------------------|
--------------------------|--------------------------|------------------------|
--5--5--x--5--5--5--x--5--|--5--5--x--5--5--5--x--5--|--5--5--x--5--5----4----|
--5--5--x--5--5--5--x--5--|--5--5--x--5--5--5--x--5--|--5--5--x--5--5----5----|
--3--3--x--3--3--3--x--3--|--3--3--x--3--3--3--x--3--|--3--3--x--3--3----3----|


                                                      
--------------------------|--------------------------|
--------------------------|--------------------------|
--------------------------|-----------------------5--|
--2--2--x--2--2--2--x--2--|--2--2--x--2--2--2--2--5--|
--2--2--x--2--2--2--x--2--|--2--2--x--2--2--2--2--3--|
--0--0--x--0--0--0--x--0--|--0--0--x--0--0--0--0-----|


                                                      
--------------------------|--------------------------|
--------------------------|--------------------------|
--5--5--x--5--5--5--x--5--|--5--5--x--5--5--5--x--5--|
--5--5--x--5--5--5--x--5--|--5--5--x--5--5--5--x--5--|
--3--3--x--3--3--3--x--3--|--3--3--x--3--3--3--x--3--|
--------------------------|--------------------------|


                                                                              
--------------------------|----------------------------|---------------------|
--------------------------|------------------8---------|--------8------------|
--------------------------|--7--7--7--9--11-----9--11--|--7--9---------------|
--5--5--x--5--5--5--x--5--|----------------------------|---------------------|
--5--5--x--5--5--5--x--5--|----------------------------|---------------------|
--3--3--x--3--3--3--x--3--|----------------------------|---------------------|


                                                   
----------------------------|---------------------|
------------------8---------|--------8------------|
--7--7--7--9--11-----9--11--|--7--9---------------|
----------------------------|---------------------|
----------------------------|---------------------|
----------------------------|---------------------|


                                                                
----------------------------------|----------------------------|
--------------12--12--------------|----------------------------|
----------12----------14b-14r-12--|--14--12----------12--------|
--12--14--------------------------|----------14--12------------|
----------------------------------|----------------------------|
----------------------------------|----------------------------|


                                                                         
-------------------------|-------------------|--------------------------|
-------------------------|-------------------|--------------------------|
-------------------------|-------------------|--------------------------|
--7--7--9r-9--7--10------|--5----------------|--5--5--x--5--5--5--x--5--|
-------------------------|-------------------|--5--5--x--5--5--5--x--5--|
-------------------------|-------------------|--3--3--x--3--3--3--x--3--|

[ Tab from: http://www.guitartabs.cc/tabs/m/metallica/whiskey_in_the_jar_tab_ver_3.html ]
                                                      
--------------------------|--------------------------|
--------------------------|--------------------------|
--------------------------|--------------------------|
--5--5--x--5--5--5--5--2--|--2--2--x--2--2--2--x--2--|
--5--5--x--5--5--5--5--2--|--2--2--x--2--2--2--x--2--|
--3--3--x--3--3--3--3--0--|--0--0--x--0--0--0--x--0--|


                                                      
--------------------------|--------------------------|
--------------------------|--------------------------|
-----------------------5--|--5--5--x--5--5--5--x--5--|
--2--2--x--2--2--2--2--5--|--5--5--x--5--5--5--x--5--|
--2--2--x--2--2--2--2--3--|--3--3--x--3--3--3--x--3--|
--0--0--x--0--0--0--0-----|--------------------------|


                                                      
--------------------------|--------------------------|
--------------------------|--------------------------|
--5--5--x--5--5--5--x--5--|--------------------------|
--5--5--x--5--5--5--x--5--|--5--5--x--5--5--5--x--5--|
--3--3--x--3--3--3--x--3--|--5--5--x--5--5--5--x--5--|
--------------------------|--3--3--x--3--3--3--x--3--|


                                                                               
--------------------------|------------------------|--------------------------|
--------------------------|------------------------|--------------------------|
--------------------------|------------------------|--------------------------|
--5--5--x--5--5--5--x--5--|--5--5--x--5--5----4----|--2--2--x--2--2--2--x--2--|
--5--5--x--5--5--5--x--5--|--5--5--x--5--5----5----|--2--2--x--2--2--2--x--2--|
--3--3--x--3--3--3--x--3--|--3--3--x--3--3----3----|--0--0--x--0--0--0--x--0--|


                                                      
--------------------------|--------------------------|
--------------------------|--------------------------|
-----------------------5--|--5--5--x--5--5--5--x--5--|
--2--2--x--2--2--2--2--5--|--5--5--x--5--5--5--x--5--|
--2--2--x--2--2--2--2--3--|--3--3--x--3--3--3--x--3--|
--0--0--x--0--0--0--0-----|--------------------------|


                                                                                
--------------------------|--------------------------|----------------------0--|
--------------------------|--------------------------|-------------3--1--------|
--5--5--x--5--5--5--x--5--|--------------------------|----------0--------0-----|
--5--5--x--5--5--5--x--5--|--5--5--x--5--5--5--x--5--|-------2-----------------|
--3--3--x--3--3--3--x--3--|--5--5--x--5--5--5--x--5--|--3----------------------|
--------------------------|--3--3--x--3--3--3--x--3--|-------------------------|


                                                                          
-------3----0----------|--------------------0----|-------3----0----------|
--1--------------------|--------1--3--1----------|--1--------------------|
-----------------0--0--|--0--0-----------0-------|-----------------------|
-----------------------|-------------------------|-----------------5--5--|
-----------------3--3--|--3----------------------|-----------------5--5--|
-----------------------|-------------------------|-----------------3--3--|


                                                                              
--------------------------|----------------------------|---------------------|
--------------------------|------------------8---------|--------8------------|
--------------------------|--7--7--7--9--11-----9--11--|--7--9---------------|
--5--5--x--5--5--5--x--5--|----------------------------|---------------------|
--5--5--x--5--5--5--x--5--|----------------------------|---------------------|
--3--3--x--3--3--3--x--3--|----------------------------|---------------------|


                                                   
----------------------------|---------------------|
------------------8---------|--------8------------|
--7--7--7--9--11-----9--11--|--7--9---------------|
----------------------------|---------------------|
----------------------------|---------------------|
----------------------------|---------------------|


                                                                
----------------------------------|----------------------------|
--------------12--12--------------|----------------------------|
----------12----------14b-14r-12--|--14--12----------12--------|
--12--14--------------------------|----------14--12------------|
----------------------------------|----------------------------|
----------------------------------|----------------------------|


                                                                           
-------------------------|-------------------|----------------------------|
-------------------------|-------------------|------------------8---------|
-------------------------|-------------------|--7--7--7--9--11-----9--11--|
--7--7--9r-9--7--10------|--5----------------|----------------------------|
-------------------------|-------------------|----------------------------|
-------------------------|-------------------|----------------------------|


                                                         
---------------------|----------------------------------|
--------8------------|--13--12------12--13--12------12--|
--7--9---------------|----------13--------------13------|
---------------------|----------------------------------|
---------------------|----------------------------------|
---------------------|----------------------------------|


                                                                  
--------------------------------|--------------------------------|
--------------12--13--15--17r---|--17--15------15--17r---17--15--|
--11--12--14--------------------|----------16--------------------|
--------------------------------|--------------------------------|
--------------------------------|--------------------------------|
--------------------------------|--------------------------------|


                                                                      
----------------------------------|----------------------------------|
------15--13--12------------------|--13--12--------------------------|
--16--------------14--12----------|----------14--12--------------12--|
--------------------------15--14--|------------------14--12--12------|
----------------------------------|----------------------------------|
----------------------------------|----------------------------------|


                                                                    
----------------------------------|--------------------------------|
--13--12------12--13--12------12--|--------------12--13--15--17r---|
----------13--------------13------|--11--12--14--------------------|
----------------------------------|--------------------------------|
----------------------------------|--------------------------------|
----------------------------------|--------------------------------|


                                                                    
--------------------------------|----------------------------------|
--17--15------15--17r---17--15--|------15--13--12------------------|
----------16--------------------|--16--------------14--12----------|
--------------------------------|--------------------------15--14--|
--------------------------------|----------------------------------|
--------------------------------|----------------------------------|


                                                                    
----------------------------------|--------------------------------|
--13--12--------------------------|--------------------------------|
----------14--12------------------|----------------------------12--|
------------------14--12--12--10--|--9--11--12--11--9--11--12------|
----------------------------------|--------------------------------|
----------------------------------|--------------------------------|


                                                                    
----------------------------------|--------------------------------|
--13--12------12--13--12------12--|--------------12--13--15--17r---|
----------13--------------13------|--11--12--14--------------------|
----------------------------------|--------------------------------|
----------------------------------|--------------------------------|
----------------------------------|--------------------------------|


                                                                    
--------------------------------|----------------------------------|
--17--15------15--17r---17--15--|------15--13--12------------------|
----------16--------------------|--16--------------14--12----------|
--------------------------------|--------------------------15--14--|
--------------------------------|----------------------------------|
--------------------------------|----------------------------------|


                                                            G                 
----------------------------------|----------------------|--3----------------|
--13--12--------------------------|----------------------|--0----------------|
----------14--12--------------12--|--12/-------14--------|--0----------------|
------------------14--12--12------|----------------------|--0----------------|
----------------------------------|----------------------|--2----------------|
----------------------------------|----------------------|--3----------------|


  Em                  C                   G                   G                 
--0----------------|--0----------------|--3----------------|--3----------------|
--0----------------|--1----------------|--0----------------|--0----------------|
--0----------------|--0----------------|--0----------------|--0----------------|
--2----------------|--2----------------|--0----------------|--0----------------|
--2----------------|--3----------------|--2----------------|--2----------------|
--0----------------|-------------------|--3----------------|--3----------------|


  Em                  C                   G                 
--0----------------|--0----------------|--3----------------|
--0----------------|--1----------------|--0----------------|
--0----------------|--0----------------|--0----------------|
--2----------------|--2----------------|--0----------------|
--2----------------|--3----------------|--2----------------|
--0----------------|-------------------|--3----------------|


                                                                            
----------------------0--|-------3----0----------|--------------------0----|
-------------3--1--------|--1--------------------|--------1--3--1----------|
----------0--------0-----|-----------------0--0--|--0--0-----------0-------|
-------2-----------------|-----------------------|-------------------------|
--3----------------------|-----------------3--3--|--3----------------------|
-------------------------|-----------------------|-------------------------|


                                                                                
-------3----0----------|--------------------------|----------------------------|
--1--------------------|--------------------------|------------------8---------|
-----------------------|--------------------------|--7--7--7--9--11-----9--11--|
-----------------5--5--|--5--5--x--5--5--5--x--5--|----------------------------|
-----------------5--5--|--5--5--x--5--5--5--x--5--|----------------------------|
-----------------3--3--|--3--3--x--3--3--3--x--3--|----------------------------|


                                                                         
---------------------|----------------------------|---------------------|
--------8------------|------------------8---------|--------8------------|
--7--9---------------|--7--7--7--9--11-----9--11--|--7--9---------------|
---------------------|----------------------------|---------------------|
---------------------|----------------------------|---------------------|
---------------------|----------------------------|---------------------|


                                                                
----------------------------------|----------------------------|
--------------12--12--------------|----------------------------|
----------12----------14b-14r-12--|--14--12----------12--------|
--12--14--------------------------|----------14--12------------|
----------------------------------|----------------------------|
----------------------------------|----------------------------|


                                                                           
-------------------------|-------------------|----------------------------|
-------------------------|-------------------|------------------8---------|
-------------------------|-------------------|--7--7--7--9--11-----9--11--|
--7--7--9r-9--7--10------|--5----------------|----------------------------|
-------------------------|-------------------|----------------------------|
-------------------------|-------------------|----------------------------|


                                                                         
---------------------|----------------------------|---------------------|
--------8------------|------------------8---------|--------8------------|
--7--9---------------|--7--7--7--9--11-----9--11--|--7--9---------------|
---------------------|----------------------------|---------------------|
---------------------|----------------------------|---------------------|
---------------------|----------------------------|---------------------|


                                                              
------------------------------|------------------------------|
--3---------------------------|--3---------------------------|
-----4--2--2h4h2h0-0--4-0h2h4-|-----0--2--2h4h2h0-0--2-0h2h4-|
------------------------------|------------------------------|
------------------------------|------------------------------|
------------------------------|------------------------------|


                                                              
------------------------------|------------------------------|
--3---------------------------|--3---------------------------|
-----4--2--2h4h2h0-0--4-0h2h4-|-----0--2--2h4h2h0-0--2-0h2h4-|
------------------------------|------------------------------|
------------------------------|------------------------------|
------------------------------|------------------------------|


                                                              
------------------------------|------------------------------|
--3---------------------------|--3---------------------------|
-----4--2--2h4h2h0-0--4-0h2h4-|-----0--2--2h4h2h0-0--2-0h2h4-|
------------------------------|------------------------------|
------------------------------|------------------------------|
------------------------------|------------------------------|


                                                              
------------------------------|------------------------------|
--3---------------------------|--3---------------------------|
-----4--2--2h4h2h0-0--4-0h2h4-|-----0--2--2h4h2h0-0--2-0h2h4-|
------------------------------|------------------------------|
------------------------------|------------------------------|
------------------------------|------------------------------|


                                 G                  
------------------------------|--3----------------||
--3---------------------------|--0----------------||
-----0--2--2h4h2h0-0--2-2h4h2-|--0----------------||
------------------------------|--0----------------||
------------------------------|--2----------------||
------------------------------|--3----------------||


Comments