Metallica - Wherever I May Roam Chords & Tabs

 

Wherever I May Roam Chords & Tabs

Metallica Chords & Tabs

Version: 1 Type: Tab 3 ratings
1 star 2 stars 3 stars 4 stars 5 stars
comments

Wherever I May Roam Tab

Metallica
Wherever I May Roam



E------------------------------------------------
B------------------------------------------------
G------------------------------------------------
D------------------------------------------------      2 times
A------2-2-3-2--------5-5-7-3--------------------   
E---0---------------------------------------------

[ Tab from: http://www.guitartabs.cc/tabs/m/metallica/wherever_i_may_roam_tab.html ]
E------------------------------------------------
B------------------------------------------------
G------------------------------------------------
D---------------------------------5-5-3-------------   2 times   
A----7-9-11-------2-----7-7-8-7---------8----   
E----5-7-9--------0----------------------------------





Thats all i know, email if you have comments
demundy@hotmail.com
Comments