Metallica - Where The Wild Things Are Chords & Tabs

 

Where The Wild Things Are Chords & Tabs

Metallica Chords & Tabs

Version: 3 Type: Tab 0 ratings
1 star 2 stars 3 stars 4 stars 5 stars
comments

Where The Wild Things Are Tab

   
-------------------------------------------------------------------------------
	           WHERE THE WILD THINGS ARE- METALLICA
-------------------------------------------------------------------------------
Tabbed by: Matt Carter
Email: DSCGuitar@aol.com

Tuning:One half step down (eb, Bb, Gb, Db, Ab, eb)

eb|----------------------------------|
Bb|----------------------------------|
Gb|-7/9-(7)-9~--7/9-(7)-9~--7/9-9~---|
Db|-7/9-(7)-9~--7/9-(7)-9~--7/9-9~---|
Ab|-5/7-(5)-7~--5/7-(5)-7~--5/7-7~---|
Eb|--------------------------------0-|
   ()-palm mute

eb|---------------------------------------------------------------------------|
Bb|---------------------------------------------------------------------------|
Gb|---------------------------------------------------------------------------|
Db|--------------------5-7-7/9\7-----------------------5-7-7/9\7-5h7/9~-------|
Ab|-----5/7~~~-5-7-5-7-----------5~-----5/7~~~-5-7-5-7------------------------|
Eb|-0-0-----------------------------0-0---------------------------------------|

eb|---------------------------------------|
Bb|---------------------------------------|
Gb|---------------------------------------|
Db|--------------------5-7-7/9\7-5-5--9-9-|
Ab|-----5/7~~~-5-7-5-7-----------5-5--9-9-|
Eb|-0-0--------------------------3-3--7-7-|
[ Tab from: http://www.guitartabs.cc/tabs/m/metallica/where_the_wild_things_are_tab_ver_3.html ]
eb|---------------------------------------------------------------------------|
Bb|---------------------------------------------------------------------------|
Gb|---------------------------------------------------------------------------|
Db|--------------------5-7-7/9\7-----------------------5-7-7/9\7--------------|
Ab|-----5/7~~~-5-7-5-7-----------5~-----5/7~~~-5-7-5-7-----------5~-----------|
Eb|-0-0-----------------------------0-0---------------------------------------|

eb|---------------------------------------------------------------------------|
Bb|---------------------------------------------------------------------------|
Gb|---------------------------------------------------------------------------|
Db|--------------------5-7-7/9\7-5-5--9-9--------------------5-7-7/9\7-5h7/9~-|
Ab|-----5/7~~~-5-7-5-7-----------5-5--9-9-----5/7~~~-5-7-5-7------------------|
Eb|-0-0--------------------------3-3--7-7-0-0---------------------------------|

eb|---------------------------------------------------------------------------|
Bb|---------------------------------------------------------------------------|
Gb|---------------------------------------------------------------------------|
Db|---------------------------------------------5-5--9-9----------------------|
Ab|-----5/7~~~-5-7-5-7-----------5/7~~~-5-7-5-7-5-5--9-9----------------------|
Eb|-0-0----------------3-5-7-0-0----------------3-3--7-7-0~~~~----------------|


| /  slide up
| \  slide down
| h  hammer-on
| p  pull-off
| ~  vibrato
| +  harmonic
| x  Mute note
===============================================================================
Comments