Metallica - Where The Wild Things Are Chords & Tabs

 

Where The Wild Things Are Chords & Tabs

Metallica Chords & Tabs

Version: 1 Type: Tab 0 ratings
1 star 2 stars 3 stars 4 stars 5 stars
comments

Where The Wild Things Are Tab

here the Wild Things Are
written by Hetfield, Ulrich and Newstead
as performed on ReLoad
tab by Phil Boyle, The Fixxxer, and Ron Shea
intro by petrslavik@email.cz



tune all guitars down 1/2 step                       first  second
1) Intro                                             time    time
eb-------------------------------------------------- ----- ---------
Bb--0~-0~------------------------------------------- ----- ---------
Gb--0~-0~--4-----5--4~--4-4-----5--3~-3-3-----5--0~- ----- ---------
Db--2~-2~-----2--------------2-------------2-------- ----- ---------
Ab--2~-3~--3--------------3-------------3----------- ----- ---3-2-0-
Eb--0~-0~------------------------------------------- -0-1- -0-------


2a) Kirk           2b) James (right before verse)
Gb---------------  --------------
Db--9-9-9-9-----9  --------------
Ab--8-8-8-8-----7  -5-5-5-5-----2
Eb----------0-0--  -3-3-3-3-0-0-0
           pm..     .............


3)
Gb-------------------4\1
Db--5-5-5-5-5-5-5-2--5\2
Ab--5-5-5-5-5-5-5-2-----
Eb--3-3-3-3-3-3-3p0-----
   pm..........
verse



4)
Gb--------------------       -----------4-4-----
Db--7-7--6-6---------- twice -7-7--6-6--2-2--5-5
Ab--5-5--4-4--8-8--5-5 then  -5-5--4-4-------3-3
Eb------------6-6--3-3       -------------------
chorus


Solo: Where The Wild Things Are, by: Jon Symons.
With wah
------------------------------------
------------------------------------
-9-9-/--10-10-/12-/13--/12-12-------
------------------------------------ 2x
-7-7-/--8---8--/10-/11--/12-12------
------------------------------------

----------------------------------------------
----------------------------------------------
-9-9-/-10-10-/12-/13/14-14-/--17\16\17\16-----
----------------------------------------------
-7-7-/-8---8--/10-/11/12-12-/--15\14\15\14----
----------------------------------------------
[ Tab from: http://www.guitartabs.cc/tabs/m/metallica/where_the_wild_things_are_tab.html ]
-----------------------------------------------------------------------
-15-------15-------------15----------15----15--------------------------
-14b16----14b16r---------14b16-------14b16-14b16----14b16--------------
-------------------14~--------------------------------------14---14----
-----------------------------------------------------------------------
-----------------------------------------------------------------------

-------------------         ---------------------15---------------
-15----------------         --15-----15---15---------15-----------
-14b-r--------2x---         --12--h--14---14b16-----------14b16---
--------14---------         -------------------------------------- 
-------------------         --------------------------------------
-------------------         --------------------------------------

---------------------------------------
--15-----------------------------12\\\-
--14b16r-p12---14b16rp12---------12\\\-
---------------------------14----------2x
---------------------------------------
---------------------------------------

--------------------------------------------------------15------------------
--/////15-------15-------15-------15------------15--17------17--15------15--
-----------16~------16~------16~------16~---------------------------16------
----------------------------------------------------------------------------
----------------------------------------------------------------------------
----------------------------------------------------------------------------

----------------------------------------------------------------------------
--15-15-----14--14------11----11--12--12--------15-15-15-15p14--------------
--17-b-17-b-16b-16b-----13b---13b-14b-14---17b-------------------14---------
---------------------------------------------------------------------14~~~--
----------------------------------------------------------------------------
----------------------------------------------------------------------------

----------------------------------------------------
----------------------------------------------------
----16\15----16\15--------------12b-----------------
---------------------------------------------14-----
----13\12----13\12----------------------------------
----------------------------------------------------

---------------------------------------12---------12-----
----15-15-15-15p14---------------------15b--------15b----
----------------------14---------------------------------
----------------------------14---------------------------
---------------------------------------------------------
---------------------------------------------------------
Comments