Metallica - Welcome Home Chords & Tabs

 

Welcome Home Chords & Tabs

Metallica Chords & Tabs

Version: 1 Type: Tab 2 ratings
1 star 2 stars 3 stars 4 stars 5 stars
comments

Welcome Home Tab

   
Song: Welcome Home (sanitarium)
Artist: Metallica

Gtr I (E A D G B E) - 'James Hetfield (clean)'
Gtr II (E A D G B E) - 'Kirk Hammett (Solo)'
Gtr III (E A D G B E) - 'James Hetfield (Dist Rhythm)'

Intro
  
 4/4
  Gtr I
                                  |-3-|
  
|----------|----------------3-3h5p3p2-|
|----------|--------()----0-------|
|----------|------------------------------|
|----------|------------------------------|
|----------|------------------------------|
|-0--------|--(0)---(0)-------------------|
  


 
|----------|----------------2-2--3-|
|----------|--------()----0----|
|----------|---------------------------|
|----------|---------------------------|
|----------|---------------------------|
|-0--------|--(0)---(0)----------------|
 


  
|-0------------|-------------------|
|--------------|-()------------|
|------------------|-----------------------|
|------------------|-----------------------|
|------------------|-----------------------|
|-0----------------|----0------------------|
 


    
|-------------------|-----------------------|
|-()------------|-()----------------|
|-----------------------|-----------------------|
|-----------------------|---------------------------|
|-----------------------|---------------------------|
|----0------------------|----0----------------------|
     


                                         2/4
                                                    4x
||------------------|-------------------|------------||
||o-----------------|-------------------|-----------o||
||--------0-------0-|-------0-----------|------------||
||------4-------5---|-----7-------0-----|---0-----0--||
||o---2-------3-----|---5-------4-------|-2---------o||
||--0-------0-------|-0-------5-----5s3-|-----3s5----||


 4/4
  Gtr II
  
|----------------------|-------10s12-15s17-17-----|
|----------------------|-10-12--------------------|
|-----11-12---------12-|--------------------------|
|---9-------14---------|--------------------------|
|-7--------------------|--------------------------|
|----------------------|--------------------------|
|
| Gtr I
| 
|----------------------|--------------------------|
|----------------------|--------------------------|
|---------0----------0-|-----------0--------------|
|------4----------5----|--------7-----------0-----|
|---2-----------3------|-----5-----------4--------|
|-0----------0---------|--0-----------5-------5s3-|


 2/4            4/4
   
|-(17)---------|---15-15-12-12s14----12-(12)b14r(12)-|
|--------------|-------------------------------------|
|--------------|-------------------------------------|
|--------------|-------------------------------------|
|--------------|-------------------------------------|
|--------------|-------------------------------------|
|
|   
|--------------|-------------------------------------|
|--------------|-------------------------------------|
|--------------|----------0-----------------------0--|
|------0-----0-|-------4--------------5--------------|
|---2----------|----2--------------3-----------------|
|--------3s5---|-0-----------0-----------------------|


                                  2/4
                    |--3--|
   
|----12--------------------------|---------------|
|-15----15-13-12---12h13p12------|---------------|
|-----------------------------14-|-12s11---------|
|--------------------------------|---------12----|
|--------------------------------|------------14-|
|--------------------------------|---------------|
|
| 
|--------------------------------|---------------|
|--------------------------------|---------------|
|-----------0--------------------|---------------|
|--------7----------0------------|-----0-------0-|
|-----5----------4---------------|--2------------|
|--0-----------5------------5s=3-|-------3s=5----|


 4/4
   
|-------------------------|-------19---19-----------------17--|
|-------------------------|----17---------17------------------|
|-------------------------|-16---------------16s==14-14-------|
|-12s14----(14)-----------|-----------------------------------|
|-------------------------|-----------------------------------|
|-------------------------|-----------------------------------|
|
|  
|-------------------------|-----------------------------------|
|-------------------------|-----------------------------------|
|---------------0-------0-|-------------0---------------------|
|------------4--------5---|----------7----------------0-------|
|--------2----------3-----|--------5------------4-------------|
|--0--------------0-------|--0----------------5---------5s=3--|


 2/4                         4/4
                                        ~~~~
  
|-17-15-14------------------|-----------------------------12-|
|----------17---15-14-------|--------------------------13----|
|---------------------16-14-|-12b14r==(12)----------14-------|
|---------------------------|--------------------14----------|
|---------------------------|--------------------------------|
|---------------------------|--------------------------------|
|
|  
|---------------------------|--------------------------------|
|---------------------------|--------------------------------|
|---------------------------|--------------0------------0----|
|--------0-------------0----|-----------4---------5----------|
|--2------------------------|-------2----------3-------------|
|-------------3s=5----------|--0-------------0---------------|


                                       2/4
   |--3--|
   
|-10h12p10---------------------5------|---3---------|
|----------13-12----(12)\-------------|-------------|
|----------------------------6--------|-4--------6--|
|-------------------------/7-------/5-|-----/7------|
|-------------------------------------|-------------|
|-------------------------------------|-------------|
|
|  
|-------------------------------------|-------------|
|-------------------------------------|-------------|
|-----------------0-------------------|-------------|
|--------------7---------------0------|---0------0--|
|-----------5----------------4--------|-2-----------|
|--0-----------------------5-----5s=3-|------3s5----|


   Verse
    $
   4/4                                   2/4
                                                     4x
||------------------|-------------------|------------||
||o-----------------|-------------------|-----------o||
||--------0-------0-|-------0-----------|------------||
||------4-------5---|-----7-------0-----|---0-----0--||
||o---2-------3-----|---5-------4-------|-2---------o||
||--0-------0-------|-0-------5-----5s3-|-----3s5----||


   4/4                                   2/4
    PM--------------------------------------------|
    
||------------------|-------------------|------------||
||o-----------------|-------------------|-----------o||
||------------------|-------------------|------------||
||------------------|-------------------|------------||
||o-----2-2-----3-3-|-----5-5-----------|-----------o||
||--0-0-----0-0-----|-0-0-----5-5-5---3-|-3-3---5-3--||
|
|   Gtr I
|   
||------------------|-------------------|------------||
||o-----------------|-------------------|-----------o||
||--------0-------0-|-------0-----------|------------||
||------4-------5---|-----7-------0-----|---0-----0--||
||o---2-------3-----|---5-------4-------|-2---------o||
||--0-------0-------|-0-------5-----5s3-|-----3s5----||


 Chorus
 4/4
  Gtrs II, III
     PM|     PM|     PM|                    PM--------|
                                      |-3-|
  
|----------------------------|--------------------------|
|----------------------------|--------------------------|
|----------------5s4-----5s4-|-(4)----------------------|
|--------5s4-----5s4-----5s4-|-(4)----0h2p0-------------|
|--------5s4-----3s2-----3s2-|-(2)----------3-2---------|
|-0--x-x-3s2-x-x-----x-x-----|------------------5-3-2-3-|


     PM|     PM|     PM|
  
|------------------------------|
|------------------------------|
|----------------5s4-----5s4---|
|--------5s4-----5s4-----5s4---|
|--------5s4-----3s2-----3s2---|
|-0--x-x-3s2-x-x-----x-x-------|


      PM--------|
  
|-----------------------------|
|-----------------------------|
|-(4)-------------------------|
|-(4)-------------------------|
|-(2)-2-2-2-2-2-2-3-2---2-0-3-|
|---------------------3-----1-|


     PM|     PM|     PM|                  PM--------|
                                    |-3-|
  
|----------------------------|--------------------------|
|----------------------------|--------------------------|
|----------------5s4-----5s4-|-4------------------------|
|--------5s4-----5s4-----5s4-|-4----0h2p0---------------|
|--------5s4-----3s2-----3s2-|-2----------3-2-----------|
|-0--x-x-3s2-x-x-----x-x-----|----------------5-3-2-3---|


                           To Coda
                                    B
                                    Gtr III
  
                                     |
                                     o

                                    Gtr II
     PM|     PM|     PM|
  
|--------------------------|------|----------------------------------|
|--------------------------|------|----------------------------10----|
|----------------5s4-----5-|-4----|-------------------7-7-9s11-------|
|--------5s4-----5s4-----5-|-4----|------------7-7-/9----------------|
|--------5s4-----3s2-----3-|-2----|----5-5-7s9-----------------------|
|-0--x-x-3s2-x-x-----x-x---|------|-/7-------------------------------|


  Gtr II
  
|-------15-17-22-22-19-------|-17h19p17-15-17h19-17----17-19p17---17-|
|-17-19-------24-24-17-------|-19-20-19-17-19-20-19-19-19-20-19---17-|
|----------------------------|----------------------19---------------|
|----------------------------|---------------------------------------|
|----------------------------|---------------------------------------|
|----------------------------|---------------------------------------|
|
| Gtr I
|  
|----------------------------|---------------------------------------|
|----------------------------|---------------------------------------|
|-----------------0--------0-|--------------0------------------------|
|--------------4---------5---|-----------7--------------0------------|
|--------2-------------3-----|--------5--------------4---------------|
|--0-----------------0-------|--0-----------------5-------------5s=3-|


 2/4          4/4
  
|-15---------|-14b15==(15)-(15)r(14)-----------14-15-|
|------------|-15b17==(17)-(17)r(15)-15--------------|
|-16---------|---------------------------------------|
|------------|---------------------------------------|
|------------|---------------------------------------|
|------------|---------------------------------------|
|
|  
|------------|---------------------------------------|
|------------|---------------------------------------|
|------------|--------------------0-------------0----|
|----0-----0-|---------------4---------------5-------|
|--2---------|----------2------------------3---------|
|------3s5---|--0------------------------0-----------|


               |--3--|
   
|-17-15-14-15-14h15p14----14---------------------------------|
|----------------------17----17-17-14-15p14----14------------|
|-------------------------------------------16----16---14s12-|
|------------------------------------------------------------|
|------------------------------------------------------------|
|------------------------------------------------------------|
|
|  
|------------------------------------------------------------|
|------------------------------------------------------------|
|--------------------------0---------------------------------|
|--------------7--------------------------------0------------|
|--------5-----------------------------4---------------------|
|--0-----------------------------5-------------------5s=3----|


 2/4                         4/4
                                  ~~~~~~~~~~~~~~~
  
|---------------------------|----------------------------17-----|
|---------------------------|----------------------17s15----15s=|
|-14p12-11-12---11----------|-----------------------------------|
|------------------14-12-11-|-12h14--(14)---(14)----------------|
|---------------------------|-----------------------------------|
|---------------------------|-----------------------------------|
|
|  
|---------------------------|-----------------------------------|
|---------------------------|-----------------------------------|
|---------------------------|-------------0---------------0-----|
|--------0-------------0----|----------4---------------5--------|
|--2------------------------|-----2-----------------3-----------|
|-------------3s=5----------|--0-----------------0--------------|


  
|----15-------14-------12------10-----7-------|
|-14----14s12----12s10----10s8----8s7-----7---|
|-------------------------------------------7-|
|---------------------------------------------|
|---------------------------------------------|
|---------------------------------------------|
|
|  
|---------------------------------------------|
|---------------------------------------------|
|--------------------0------------------------|
|--------------7--------------------0---------|
|--------5----------------------4-------------|
|--0-----------------------5------------5s3---|


 2/4            4/4
 
|--------------|-------------------|
|--------------|-------------------|
|---7-9-9s11-9-|-9---------9-9-9-9-|
|-9------------|-------------------|
|--------------|-------------------|
|--------------|-------------------|
|
| 
|--------------|-------------------|
|--------------|-------------------|
|--------------|-------0---------0-|
|-----0------0-|-----4---------5---|
|-2------------|---2-------3-------|
|-------3s=5---|-0-------0---------|


                        D.S. al Coda
                                    &
                       2/4
 
|--------------5------|----3--------||
|---------------------|-------------||
|-9-7--------6--------|-/4--------6-||
|-----5---/7-------/5-|--------/7---||
|---------------------|-------------||
|---------------------|-------------||
|
| 
|---------------------|-------------||
|---------------------|-------------||
|-------0-------------|-------------||
|-----7--------0------|----0------0-||
|---5--------4--------|--2----------||
|-0--------5-----5s=3-|------3s=5---||


                     4/4
  
|-------------------|----------------------------|
|-------------------|----------------------------|
|-------------------|----------------------------|
|-------------------|----------------------------|
|-------------------|----------------------------|
|-------------------|----------------------------|
|
| Gtrs II, III
|                        PM|     PM|     PM|
| |-3-|
| 
|-------------------|----------------------------|
|-------------------|----------------------------|
|-------------------|----------------5s4-----5---|
|-0h2p0-------------|--------5s4-----5s4-----5---|
|-------3-2---------|--------5s4-----3s2-----3---|
|-----------5-3-2-3-|-0--x-x-3s2-x-x-----x-x-----|


                               Q=200
            2/4                 4/4
             |-3-|
  
|----------|-------------------|----------|------------|
|----------|-------------------|----------|------------|
|-4--------|-------------------|----------|------------|
|-4--------|-0h2p0-------------|-2--------|-(2)--------|
|-2--------|-------3-2---------|-2--------|-(2)--------|
|----------|-----------5-3-2-3-|-0--------|-(0)--------|


              pick scrapes
  
|------------|----------------------------------------------------|
|------------|----------------------------------------------------|
|------------|----------------------------------------------------|
|-(2)--------|-x\-x\-x\-x\-x--x\-x\-x\-x--x\-x\-x\-x--x--x\-x\----|
|-(2)--------|-x\-x\-x\-x\-x\-x\-x\-x\-x\-x\-x\-x\-x\-x\-x\-x\----|
|-(0)--------|-x\-x\-x\-x\-x\-x\-x\-x\-x--x\-x\-x\-x\-x\-x\-x\----|


  Gtrs II, III
  
|-----------------|-----------------|-----------------|-----------------|
|-----------------|-----------------|-----------------|-----------------|
|-----------------|-----------------|-----------------|-----------------|
|-----------------|-----------------|-----------------|-----------------|
|-----------------|-----------------|-----------------|-----------------|
|-0-0-0-0-0-0-0-0-|-0-0-0-0-0-0-0-0-|-0-0-0-0-0-0-0-0-|-0-0-0-0-0-0-0-0-|

                                                                            4x
||------------------|-----------------|-----------------|-------------------||
||o-----------------|-----------------|-----------------|------------------o||
||------------------|-----------------|-----------------|-------------------||
||--0h1---0h1-------|-----------------|-0h1---0h1---0h1-|---0h2-------------||
||o-0h1---0h1-------|-----------------|-0h1---0h1---0h1-|---0h2------------o||
||------------0-0-0-|-0-0-0-0-0-0-0-0-|-----------------|---------0-0-0-0---||

[ Tab from: http://www.guitartabs.cc/tabs/m/metallica/welcome_home_tab.html ]
    Slower Q=98
    
||----------------|---------------|---------------|--------------------||
||o---------------|---------------|---------------|-------------------o||
||----------------|-----7-7-------|---------------|-----5-5------4-4---||
||--0-2-2-2-------|-0-2-7-7-------|-0-2-3-3-------|-0-2-5-5--5-4-4-4---||
||o-0-2-2-2-------|-0-2-5-5-------|-0-2-3-3-------|-0-2-3-3--3-2-2-2--o||
||------0-0-------|---------------|-----1-1-------|--------------------||


                                       Guitar Solo
                                     Q=200
                                        D     Eb          D     Eb    E
                                        Gtr III
 
                                         |     |           |     |     |     |     |
                                         /     /           /     /     o     /     /

                          Gtr IV        Gtr II
  
|------------------------------------||-------------------------------------------------|
|------------------------------------||-------------------------------------------------|
|------------------------------------||-12-12-12-12-12-12-12-12-12-12-12-12-12-12-12-12-|
|------------------------------------||-------------------------------------------------|
|------------------------------------||-------------------------------------------------|
|-0-0-0-0-0-0-0-0-0-0-0-0-12-11-10-9-||-------------------------------------------------|


  
   |     |     |     |     |     |     |     |
   /     /     /     /     /     /     /     /

   
|-------------------------------------------------|
|-------------------------------------------------|
|-16-12-12-12-12-12-12-12-12-12-12-12-12-12-12-12-|
|-------------------------------------------------|
|-------------------------------------------------|
|-------------------------------------------------|


  D     Eb          D     Eb          D     Eb            D     E/B        E
   E
   |     |           |     |           |     |             |     |          |  |   |  |
   /     /           /     /           /     /             /     /          o  /   /  /

                                                                 |---3---|
   
|----------------------------------------------12-|-13-12-12-12-15-12---12-17\-------12-|
|-------------------------13-12-12-12-15-12-12----|------------------------------/12----|
|-14-12-12-12-16-12-12-12-------------------------|-------------------------------------|
|-------------------------------------------------|-------------------------------------|
|-------------------------------------------------|-------------------------------------|
|-------------------------------------------------|-------------------------------------|


  D     Eb       D  Eb    E
  
   |     |        |  |     |  |     |    |     |  |     |  |     |  |     |
   /     /        /  /     o  /     /    /     /  /     /  /     /  /     /

   
|-17p15p12-------12-17p15p12----------|-17p15p12-------12-17p15p12-------12----|
|----------17p15-------------17p15-12-|----------17p15-------------15p12-------|
|-------------------------------------|----------------------------------------|
|-------------------------------------|----------------------------------------|
|-------------------------------------|----------------------------------------|
|-------------------------------------|----------------------------------------|


  D     Eb  D        Eb      D     Eb        D  E/B   E
   
   |    |     |        |      |    |          |  |      |  | | |
   /    /     /        /      /    /          /  /      o  / / /

                       ~~~~~                        ~~~~~~~
                              |---3---|
   
|-17b19r====(17)b19==(19)r------17---15-|-14----14---------------|
|----------------------------17---------|----15----15-(15)-------|
|---------------------------------------|--------------------2---|
|---------------------------------------|----------------------4-|
|---------------------------------------|------------------------|
|---------------------------------------|------------------------|


  D Eb    D EbE
 
  |  |    | | | |   |   | | | |  |  | | |
  /  /    / / o /   /   / / / /  /  / / /

                              ~~~~~~
  
|---------------------|--------------------|
|---------------------|--------------------|
|-4-(4)-4-2---2-4-2---|-----------------4--|
|-----------4-------4-|-3-2----------------|
|---------------------|-----5-2-(2)--------|
|---------------------|--------------------|


  D    Eb     D    Eb     D         Eb            D E/B         E
 
  |     |     |     |     |         |             | |           |     |    |  |
  /     /     /     /     /         /             / /           o     /    /  /

 
|-------------------------------------|-----------------------------------------|
|-----------5-----------5-----------5-|-----------5-----------5--------------12-|
|-7b9==(9)r---7b9==(9)r---7b9==(9)r---|-7b9==(9)r---7b9==(9)r---7b9==(9)r-14----|
|-------------------------------------|-----------------------------------------|
|-------------------------------------|-----------------------------------------|
|-------------------------------------|-----------------------------------------|


  D     Eb    D Eb    E
   
   |     |    |  |     |  | |    |  |  |  |     |   |   |  |
   /     /    /  /     o  / /    /  /  /  /     /   /   /  /

                                          ~~~~~~~~~~~~~~
   |---3----|    |---3----|      |--3--|
   
|---------------15b17r15-14---|-12----12------------------------|
|-15b17r15-12-----------------|----15----15b17====(17)r---17-17-|
|-----------------------------|---------------------------------|
|-----------------------------|---------------------------------|
|-----------------------------|---------------------------------|
|-----------------------------|---------------------------------|


  D     Eb          D     Eb       D   Eb
   
   |     |           |     |         |  |
   /     /           /     /         /  /

   
|-15-------15-17-15----15-19-17-15-/21-19-22-|
|----17-18----------19-----------------------|
|--------------------------------------------|
|--------------------------------------------|
|--------------------------------------------|
|--------------------------------------------|


                                            
        D     E/B          E
   
         |     |            |     |   |   |
         /     /            o     /   /   /

   
|-22-19----22-22b24==(24)r-22b24====(24)r---||-----------------|-------------------|
|-------22----------------------------------||-----------------|-------------------|
|-------------------------------------------||-----------------|-----7-7--7--------|
|-------------------------------------------||-----2-2--2------|-----7-7--7--------|
|-------------------------------------------||-0-2-2-2--2------|-0-2-5-5--5--------|
|-------------------------------------------||-----0-0--0------|-------------------|


  D E/E                        D E/D5
  Gtr III
 
  | | | |                      | | | |
  / / / /                      / / / /

  Gtr II
                               ~         PM--|
  
|----------------------------|--------------------------|
|----------------------------|--------------------------|
|----------------------------|--------------------------|
|----------------------------|--------------------------|
|----------5-/7-7-7-5-(5)-7--|-9---------9-9-9-7-(7)-9--|
|----------------------------|--------------------------|


  D  E/B F5                              D   E/C5   C Bm  B+
  
   | |   |  |                             |  | | |  | |   |  |
   / /   /  /                             /  / / /  / /   /  /

         ~~~~~~ PM--|                     ~~~       PM--|
  
|--------------------------------------|------------------------------|
|--------------------------------------|------------------------------|
|--------------------------------------|------------------------------|
|--------------------------------------|------------------------------|
|-10---9-8-(8)--8-8-8-10-(10)-8h10p8-7-|-(7)--------6-6-6-7-(7)-9-----|
|--------------------------------------|------------------------------|


  D E/E                      D E/D5
  
  | | | |                    | | | |
  / / / /                    / / / /

  ~         PM--|            ~         PM--|
  
|--------------------------|---------------------------|
|--------------------------|---------------------------|
|--------------------------|---------------------------|
|--------------------------|---------------------------|
|-7---------7-7-7-5-(5)-7--|-9---------9-9-9-7-(7)-9-9-|
|--------------------------|---------------------------|


  D  E/B F5                              D   E/C5   C Bm  B+
   
   | |   |  |                             |  | | |  | |   |  |
   / /   /  /                             /  / / /  / /   /  /

         ~~~~~~ PM--|                     ~~~       PM--|
   
|--------------------------------------|-----------------------------|
|--------------------------------------|-----------------------------|
|--------------------------------------|-----------------------------|
|--------------------------------------|--------------------------5--|
|-10---9-8-(8)--8-8-8-10-(10)-8h10p8-7-|-(7)--------6-6-6-7-(7)-9-7--|
|--------------------------------------|-----------------------------|


    D   E/E                      D E/D5
     
     |  | | |                    | | | |
     /  / / /                    / / / /

     ~~~        PM--|            ~         PM--|
    
||-----------------------------|--------------------------|
||o----------------------------|--------------------------|
||-----------------------------|-2---------2-2-2-------2--|
||--(5)---------5-5-5-4-(4)-5--|-----------------5-(5)----|
||o-(7)---------7-7-7-5-(5)-7--|-9---------9-9-9-7-(7)-9--|
||-----------------------------|--------------------------|


  D  E/B F5                              D   E/C5   C Bm  B+
   
   | |   |  |                             |  | | |  | |   |  |
   / /   /  /                             /  / / /  / /   /  /

         ~~~~~~ PM--|                     ~~~       PM--|
   
|--------------------------------------|------------------------------||
|--------------------------------------|-----------------------------o||
|------4-5-(5)--5-5-5--7--(7)-5h=7p5---|------------------------4-----||
|--5---------------------------------5-|-(5)--------4-4-4-5-(5)---5---||
|-10---9-8-(8)--8-8-8-10-(10)-8h10p8-7-|-(7)--------6-6-6-7-(7)-9-7--o||
|--------------------------------------|------------------------------||


 Guitar Solo 2
  D E/E                      D E/B  D5
 
  | | | |                    | |     |   |
  / / / /                    / /     /   /

  ~         PM--|
 
|--------------------------|--------------------------------------|
|--------------------------|--------------------------------------|
|--------------------------|--------------------------------------|
|--------------------------|--------------------------------------|
|-7---------7-7-7-6-(6)-7--|-9---10-12-(12)--12-12-12-10-(10)-12--|
|--------------------------|--------------------------------------|


  D  E/B   F5
   
   |  |     |   |
   /  /     /   /

  
|-------------------------------------------------------------|
|-------------------------------------------------------------|
|-------12------------12-14b16==(16)r-14b16==(16)r-14b16r(14)-|
|----------14-(14)-14-----------------------------------------|
|-12s14-------------------------------------------------------|
|-------------------------------------------------------------|


   D  E/B C5           C  Bm    B+
   
   |  |  |   |         |  |     |   |
   /  /  /   /         /  /     /   /

   
|----------------------------------------------|
|---------------------12-------12-(12)---------|
|-12------------------12-------12-(12)---------|
|----14----(14)-14-14----14-14---------14-14---|
|----------------------------------------------|
|----------------------------------------------|



   D  E/B   E
  
   |  |     |   |
   /  /     /   /

                  ~~~~~
                             |----3-----|
   
|----------------------------------------------------------|
|-12-------12-(12)-----------------------------------------|
|-12-------12-(12)----12-14-14b16r(14)-12------------12-12-|
|----14-14---------14---------------------14-14-(14)-------|
|----------------------------------------------------------|
|----------------------------------------------------------|


   D            E/B   D5

  
   |            |     |       |
   /            /     /       /

                     ~~~~~~~~~~~~                    ~~~~~
                                                          |--3--|
  
|--------------12--------------------12-15b17==(17)-(17)r-12h15p12-|
|-----------------12-15b17==(17)r-15-------------------------------|
|-14b16==(16)r-----------------------------------------------------|
|------------------------------------------------------------------|
|------------------------------------------------------------------|
|------------------------------------------------------------------|


  D     E/B     F5
   
   |    |        |  |
   /    /        /  /

   |---3---|
  
|-15p12h==15-------------------------------------------------------------------------|
|------------12----------------------------------------------------------------------|
|---------------14-12-----12-14b16==(16)r(14)p12-14-14b16==(16)r(14)p12-14b16r14p12--|
|----------------------14------------------------------------------------------------|
|------------------------------------------------------------------------------------|
|------------------------------------------------------------------------------------|


  D  E/B           C5              C  Bm    B+
   
   |  |             |  |            |  |     |   |
   /  /             /  /            /  /     /   /

  
|---------------------------------------------------------|
|---------------------------------------------------------|
|-14-14b16r(14)p12-14-14b16==(16)r-11-11-11-12-(12)-14s16-|
|---------------------------------------------------------|
|---------------------------------------------------------|
|---------------------------------------------------------|


                                                          
   
  Gtrs II, III   Gtr IV        Gtrs II, III   Gtr IV        Gtrs II, IIGtr IV
           ~~~                   ~~~~
   
|----------------------------|----------------------------|-----------------------|
|-12S==17-17-----------------|-(17)-----------------------|-----------------------|
|----------------------------|--------7-7-----------------|-----------------------|
|--0-2--2--2-----8\-6\-4\-2\-|---0--2-7-7-----8\-6\-4\-2\-|-0-2-3-3----8\-6\-4\-2-|
|--0-2--2--2-----x--x--x--x--|---0--2-5-5-----x--x--x--x--|-0-2-3-3----x--x--x--x-|
|-------0--0-----x--x--x--x--|----------------x--x--x--x--|-----1-1----x--x--x--x-|
   S E  S  H     S  S  S  S      S  E S H     S  S  S  S


 Outro
  Gtrs II, III
                               PM--|
                               |-3-|
  
|-------------------|-------------------|
|-------------------|-------------------|
|-----5-5------4-4--|-------------------|
|-0-2-5-5--5-4-4-4--|-0-2-2-2--------2--|
|-0-2-3-3--3-2-2-2--|-0-2-2-2--2-2-2-2--|
|-------------------|-----0-0--0-0-0-0--|


           PM--|               PM--|
           |-3-|               |-3-|
 
|-------------------|--------------------|
|-------------------|--------------------|
|-----7-7--------7--|--------------------|
|-0-2-7-7--7-7-7-7--|-0-2-3-3--------3---|
|-0-2-5-5--5-5-5-5--|-0-2-3-3--3-3-3-3---|
|-------------------|-----1-1--1-1-1-1---|


                                                        
           PM--|      PM--|    PM--|                    
           |-3-|      |-3-|    |-3-|
  
|-------------------|-------------------|-------------|------|
|-------------------|-------------------|-------------|------|
|-----5-5--------4--|-------4--------4--|-4--2--------|------|
|-0-2-5-5--4-4-4-4--|-4-4-4-4--4-4-4-4--|-4--2--5--4--|-2----|
|-0-2-3-3--2-2-2-2--|-2-2-2-2--2-2-2-2--|-2--0--5--4--|-2----|
|-------------------|-------------------|-------3--2--|-0----|


  
|------------|-------------*|
|------------|-------------*|
|------------|-------------*|
|-(2)--------|-2\----------*|
|-(2)--------|-2\----------*|
|-(0)--------|-0\----------*|
Comments