Metallica - Wasting My Hate Chords & Tabs

 

Wasting My Hate Chords & Tabs

Metallica Chords & Tabs

Version: 4 Type: Bass Tab 0 ratings
1 star 2 stars 3 stars 4 stars 5 stars
comments

Wasting My Hate Bass Tab

   
            METALLICA - WASTING MY HATE
            ORIGINALLY APPEARED ON LOAD
    WORDS & MUSIC BY HETFIELD, ULRICH & HAMMETT
             TABBING BY: MIKE HAMILTON

This songs immensly simple but is easily one of the
best songs on Metallica's Load album. Enjoy!

  INTRO

G -----------------------------------
D -----------------------------------
A ---4-6----4-6----4-6----4-6----4-6-
E -0------0------0------0------0-----

  PRE-VERSE X2

G ----------------------------------------------
D ----------------------------------------------
A -----6-6-5-4----------------------------------
E -0-0----------0-6-6-5-4--0-4-4-3-2-4-4--2-4-4-

  VERSE A

G -------------------------------------------------
D -------------------------------------------------
A -6-6-6-6-7-7-7-756-6-6-6-7-7-7-756-6-6-6-7-7-7-7-
E -------------------------------------------------
[ Tab from: http://www.guitartabs.cc/tabs/m/metallica/wasting_my_hate_btab_ver_4.html ]
G -----------------------------------
D -----------------------------------
A ---4-6----4-6----4-6----4-6----4-6-
E -0------0------0------0------0-----

  VERSE B

G -------------------------------------------------
D -------------------------------------------------
A -6-6-6-6-7-7-7-754-4-4-4-6-6-6-7-6-6-6-6-7-7-7-7-
E -------------------------------------------------

G -----------------------------------
D -----------------------------------
A ---4-6----4-6----4-6----4-6----4-6-
E -0------0------0------0------0-----

  CHORUS

G --------------------------------------
D --------------------------------------
A ----------6--------4------------------
E -0--------------------------4-4-4---6-

  PRE-VERSE X2

  VERSE A

  VERSE B

  CHORUS X2

  AD-LIB X4

G -------------------------------------
D -------------------------------------
A ---4-6----4-6----4-6----4-6----4-7-7-
E -0------0------0------0------0-------

  VERSE A

  VERSE B

  CHORUS X2

  AD-LIB
Comments