Metallica - Until It Sleeps Chords & Tabs

 

Until It Sleeps Chords & Tabs

Metallica Chords & Tabs

Version: 4 Type: Tab 0 ratings
1 star 2 stars 3 stars 4 stars 5 stars
comments

Until It Sleeps Tab

Wah-wah power and clean

e--0----0----0--0--0---0--0---0--0--0--0--0--0--0--0-
b-10--(10)--10-10-10--13-13--10-10-13-13-12-12-10-10-
g----------------------------------------------------
d----------------------------------------------------
a----------------------------------------------------
e----------------------------------------------------

e------15b17-15b17--15-12------12---------0-0-0-0-0-0-
b-10/----------------------15------14-----0-0-0-0-0-0-
g-----------------------------------------------------
d-----------------------------------------------------
a-----------------------------------------------------
e-----------------------------------------------------

e--0--0--0---0--0--0--0--0--0--0--0--0--0----0--0-----
b-10-10-10--13-13-10-10-13-13-12-12-10-10---10b12-----
g-----------------------------------------------------
d-----------------------------------------------------
a-----------------------------------------------------
e-----------------------------------------------------
[ Tab from: http://www.guitartabs.cc/tabs/m/metallica/until_it_sleeps_tab_ver_4.html ]
e-15b17-15b17--17-15-17----15-12------12--------------
b---------------------------------15------14--14-(14)-
g-----------------------------------------------------
d-----------------------------------------------------
a-----------------------------------------------------
e-----------------------------------------------------

no wah-wah
e-----------------------------------------------------
b-----------------------------------------------------
g-----------------12-(12)-12--------------------14-14-
d---------12--14-------------------------12--14-------
a-12--15-------------------------12--15---------------
e-----------------------------------------------------

                                                              ^     ^
e----------------------------------------14-----14--15-17-19-17b19-17b19
b----------------------------12--14--15------15-------------------------
g--------------------12-14----------------------------------------------
d------------12--14-----------------------------------------------------
a----12--15-------------------------------------------------------------
e-0---------------------------------------------------------------------
Comments