Metallica - Unforgiven Chords & Tabs

 

Unforgiven Chords & Tabs

Metallica Chords & Tabs

Version: 2 Type: Tab 0 ratings
1 star 2 stars 3 stars 4 stars 5 stars
comments

Unforgiven Tab

   
#----------------------------------PLEASE NOTE--------------------------------#
#This file is the author's own work and represents their interpretation of the#
#song. You may only use this file for private study, scholarship, or research.#
#-----------------------------------------------------------------------------#
#-- File created with Instab - http://www.pconline.com/~smcarey/instab.html --#
#-----------------------------------------------------------------------------#

Author/Artist: Metallica
Title: Unforgiven 2
Album: ReLoad
Transcribed by: Travis Craig
Email: acidpulse@email.com

Tuning: Eb-Ab-Db-Gb-Bb-Eb

Lyrics and Song Structure



 6 Times
Lay beside me, tell me what they've done
Speak the words I wanna hear, to make my demons run
The door is locked now, but it's open if your true
If you can understand the me, then I can understand the you



 4 Times
Lay beside me, under wicked sky
The black of day, dark of night, we share this paralyze
The door cracks open, but there's no sun shining through
Black hearts scarring, darkness still, but there's no sun shining through


No, there's no sun shining through                             
No, there's no sun shining

 2 Times
What I've felt, what I've known
Turn the pages, turn the stone
Behind the door
Should I open it for you?

Yeah, what I've felt, what I've known
Sick and tired, I stand alone
Could you be there, 'cuz I'm the one who waits for you
Or are you unforgiven too?



 4 Times
Come lay beside me, this won't hurt, I swear
She loves me not, she loves me still, but she'll never love again
She lay beside me, But she'll be there when i'm gone
Black heart scarring darker steel, yes, she'll be there when i'm gone


Yes, she'll be there when i'm gone
Dead sure she'll be there

 2 Times
What I've felt, what I've known
Turn the pages, turn the stone
Behind the door
Should I open it for you?

Yeah, what I've felt, what I've known
Sick and tired, I stand alone
Could you be there, 'cuz i'm the one who waits for you
Or are you unforgiven too?





 3 Times
Lay beside me, tell me what I've done
The door is closed, so are your eyes


But now I see the sun, now I see the sun
Yes, now I see it

 2 Times
What I've felt, what I've known
Turn the pages, turn to stone
Behind the door
Should I open it for you?

Yeah, what I've felt, what I've known
So sick and tired, I stand alone
Could you be there, 'cuz i'm the one who waits for you
The one who waits for you

 2 Times
Oh.. what I've felt, what I've known
Turn the pages, turn to stone
Behind the door
Should I open it for you?

Oh, what I've felt
Oh, what I've known

I take this key
And I bury it in you
Because your unforgiven too


Never free
Never me
'Cuz your unforgiven too




------------------------------------------------------------------------------
------------------------------------------------------------------------------
------------------------------------------------------------------------------
-7-7/9-9/10-12--14-12-10/12/10--7/9-9/10-12--12-9/10\9------------------------
-7----------------------------------------------------------------------------
-5-5/7-7/8--10--12-10-8-/10/8---5/7-7/8--10--10-7/8-\7------------------------
                                                              

------------------------------------------------------------------------------
------------------------------------------------------------------------------
------------------------------------------------------------------------------
-2---5------5-----2-----------------------------------------------------------
-0---3------5-----2-----------------------------------------------------------
------------3-----0-----------------------------------------------------------
                                                              

-------0------------------0---3-----------------------------------------------
--------------------------3/5-3-5\3---3^-0--1/3\1-----------------------------
-----2---1------------0---------------------2/4\2-----------------------------
---2----------------2---------------------------------------------------------
-0-----------0-2-3------------------------------------------------------------
--------------------------------------3--0------------------------------------
                                                                 

----------------------------------------0-------------------------------------
-------3--------------------------------2-------------------------------------
-----2---2------0----------0------0-----2-------------------------------------
---0--------------3------0----------3---2-------------------------------------
--------------3--------2--------3-------0-------------------------------------
------------1--------3--------1-----------------------------------------------
                                                                    
[ Tab from: http://www.guitartabs.cc/tabs/m/metallica/unforgiven_tab_ver_2.html ]
------------------------------------------------------------------------------
-0h1-1-1--1------------------------------0------------------------------------
-2---2-2--2---4-4--4--7-7--7-7-7--5-5-5--4------------------------------------
-2---2-2--2---5-5--5--5-5--5-5-5--5-5-5--5------------------------------------
-0---0-0--0---2-2--2----------------------------------------------------------
------------------------------------------------------------------------------
                                                             

------------------------------------------------------------------------------
-0h1-1-1--1-------------------------------------------------------------------
-2---2-2--2---4-4--4--7-7--7-7-7--7-5-4-5-4-----------------------------------
-2---2-2--2---5-5--5--5-5--5-5-5------------7---------------------------------
-0---0-0--0---2-2--2----------------------------------------------------------
------------------------------------------------------------------------------
                                                             

-8----8----8----8-----8----8-----7---7----7---7-------------------------------
-10---10---10---10----8----8-----8---8----9---9-------------------------------
-9--9-9--9-9--9-9--9--9--9-9--9--7-7-7-7--9-9-9-9-----------------------------
-7----7----7----7-----10---10----5---5----9---9-------------------------------
----------------------10------------------7---7-------------------------------
----------------------8-------------------------------------------------------
                                                                

-5---5---3---3---3---3--------------------------------------------------------
-5---5---3---3---3---3----5---5-----------------------------------------------
-5---5---5---5---5---5----5---5-----------------------------------------------
---7---7---5---5---5---5--6---6-----------------------------------------------
----------------------------7---7---------------------------------------------
------------------------------------------------------------------------------
                                                        

------------------------------------------------------------------------------
-6bp5vvv---------1h3vvv-------------------------------------------------------
------------------------------------------------------------------------------
------------------------------------------------------------------------------
------------------------------------------------------------------------------
------------------------------------------------------------------------------
                                                        

------------------------------------------15-----15-----15-15-----17----------
----------------------12-15b-12----12-15b----15b----15b-------/17----17-20b---
-7-5h7p5-4-5------/14-----------14--------------------------------------------
-------------5----------------------------------------------------------------
------------------------------------------------------------------------------
------------------------------------------------------------------------------
                                                                        

-1---1---1---1---1---1---1---1-----0------------------------------------------
-3---3---3---3---3---3---3---3-----2------------------------------------------
-2---2---2---2---2---2---2---2-----2------------------------------------------
---0---0---0---0---0---0---0---0---2------------------------------------------
-----------------------------------0------------------------------------------
------------------------------------------------------------------------------
                                                                    

-----17------------17------------17--------17---------------------------------
-\17----17-20b-\17----17-20b-\17----17-20b----20-17-----------------19-17-----
----------------------------------------------------19b-17-19-17----19-17-----
-----------------------------------------------------------------19-------19--
------------------------------------------------------------------------------
------------------------------------------------------------------------------
                                                              

------------------------------------------------------------------------------
-19-17----19-17----19-17----19-17----19-17----17----------------------19-17---
-19-17----19-17----19-17----19-17----19-17-------20-17-19-17-19-17----19-17---
-------19-------19-------19-------19-------19----------------------19---------
------------------------------------------------------------------------------
------------------------------------------------------------------------------
                                                              

------------------------------------------------------------------------------
------------------------------------------------------------------------------
-2-4-4/5-5-5-5-4-0------------------------------------------------------------
------------------------------------------------------------------------------
------------------------------------------------------------------------------
------------------------------------------------------------------------------
                                                              

------------------------------------------------------------------------------
------------------------------------------------------------------------------
-2-2v--2-2-4-4v---2v--2-7-7v--2-2v--2-4vv-------------------------------------
-2-2v--2-2-4-4v---2v--2-7-7v--2-2v--2-4vv--5vv--2vv---------------------------
-0-0v--0-0-2-2v---0v--0-5-5v--0-0v--0-2vv--5vv--2vv---------------------------
-------------------------------------------3vv--------------------------------
                                                                         

Comments