Metallica - Unforgiven Chords & Tabs

 

Unforgiven Chords & Tabs

Metallica Chords & Tabs

Version: 3 Type: Bass Tab 0 ratings
1 star 2 stars 3 stars 4 stars 5 stars
comments

Unforgiven Bass Tab

Metallica
The Unforgiven

Transcribed by: Bryan
Email: fenixtx351@yahoo.com

Tempo:69

Standard Tuning: EADG

Intro
|------------------------------|------------|---------------|------------|------------------|
|------------8 bars of guitar--|------------|---------------|------------|------------------|
|------------------------------|-0---2-3----|-----------0h2-|-0--0-2-3---|-----------0h2-0h2|
|------------------------------|------------|-3---3\0-------|------------|-3----3\0-0-------|

|------------|-------------|
|------------|-------------|
|-0----------|0------------|
|------------|-------------|

Bass Fig. 1

1st And 2nd Verses

|--------------------|-------------------|-----------------|------------------------|
|--------------------|---------7-7-7-7-7-|-----------------|------------------------|
|-0-0---3--7-7-7-7-5-|-5--5--5-0-0-0-0-0-|-0-0-3--7-7-7-7-5|-5--5-5-5--0--0--0-0-0--|
|------------0-0-0---|-------------------|--------0-0-0-0--|----------------------3-|


|--------------------|-------------------|-----------------|-------------|
|--------------------|---------7-7-7-7-7-|-----------------|-------------|
|-0-0---3--7-7-7-7-5-|-5--5--5-0-0-0-0-0-|-0-0-3--7-7-7-7-5|--5--5--5---0|
|------------0-0-0---|-------------------|--------0-0-0----|-------------|

P.M--------------------------|                         P.M--------------------------|

|----------------------------|-------------------------|----------------------------|
|---------9p0---7p0---5p0----|-------------------------|---------9p0---7p0---5p0----|
|--0---0-0---0-0---0-0---0-0-|---3-----3h5-3-----------|--0---0-0---0-0---0-0---0-0-|
|----------------------------|--------------5-3----3-3-|----------------------------|


|-------------------------|------------|
|-------------------------|------------|
|---3-----3h5-3-----------|--------7---|
|--------------5-3----3-3-|--0---------|

Chorus

Bass Fig. 2

|--------------------|---------------------|----------------------|----------------------|
|--------------------|----5----------------|----------------------|----5-----------------|
|---0------2--3------|-----------------0h2-|-0------2--3----3-----|-------------0h2--0h2-|
|--------------------|-3-----3\0-----------|----------------------|-3-----3\0------------|

|--------------------|---------------------|----------------------|----------------------|
|--------------------|----5----------------|----------------------|----5-----------------|
|-0--------2--3------|-----------------0h2-|-0---0--2--3---3------|------------------0h2-|
|--------------------|-3-----3\0-----------|----------------------|-3-----3\0------------|

|--------------------|---------------------|
|--------------------|---------------------|
|-0------------------|-0-------------------|
|--------------------|---------------------|

Interlude
[ Tab from: http://www.guitartabs.cc/tabs/m/metallica/unforgiven_btab_ver_3.html ]
|-------|-------|-------|-------|-------|-------|----------------------|
|-------|-------|-------|-------|-------|-------|----------/7--777777/-|
|---0---|-0-----|-0-----|-0-----|-0-----|-0-----|-0--------------------|
|-------|-------|-------|-------|-------|-------|----------------------|

Guitar Solo

|--------------------|-------------------|-----------------|------------------------|
|--------------------|---------7-7-7-7-7-|-----------------|------------------------|
|-0-0---3--7-7-7-7-5-|-5--5--5-0-0-0-0-0-|-0-0-3--7-7-7-7-5|-5--5-5-5--0--0--0-0-0--|
|------------0-0-0---|-------------------|--------0-0-0-0--|----------------------3-|

|--------------------|----------------------|--------------------|----------------|
|--------------------|----------------------|--------------------|----------------|
|-0-0---3--7-7-7-7-5-|-5-5-5-5--0-0---0-0---|-0-0---3--7-7-7-7-5-|--5--5--5---0---|
|------------0-0-0---|--------------3-----3-|------------0-0-0---|----------------|

P.M---------------------------|

|-----------------------------|--------------------|----------------5-----------|
|---------9p0---7p0---5p0-----|--------------------|-------------5-7-7-5--------|
|--0---0-0---0-0---0-0---0-0--|---3-----3h5-3------|-0--0-0-0-3-7-------7-5-0-2-|
|-----------------------------|--------------5-3---|----------------------------|



Bass Fig. 2 X1

Coda

|-------------------|----------------------|----------------5-----|--------------------|
|-------------------|------5---------------|----------------------|--------------------|
|--0---0-2-3--------|-------------2----0h2-|-0---0-2-3--------3-5-|------------0h2-0h2-|
|-------------------|-3-----3\0-----3------|----------------------|-3-----3\0----------|

Outro

|---------------------------|-------------------------|-------------------|----------------------|
|---------------------------|------5------------------|-------------------|------5---------------|
|----0--0-0--2-3----3---3h5-|----------------0h2--0h2-|-0---0-2-3-----3h5-|----------------0-0h2-|
|---------------------------|-3------3-3\0------------|-------------------|-3--3----3\0--0-------|

|---------------------|--------------------------|----------------|---------------------|
|-------------------02|-5-5555-------------------|--------------02|-5-5--55-752--2/99-9-|
|----0---0--2--3------|------------------0h2-0h2-|-0-0-0-0-2-3--3-|---------------------|
|---------------------|-------3-2-2-2-2-2--------|----------------|---------------------|

|----------------------------|-------------------------|-------------------|------------------------|
|----7--7-7-5----------------|-------5-----------------|----7-7------------|-----5-5-5-2----2-------|
|------------7-5-3--3-3-3--3-|------------------0h20h2-|-0------2-3---3--5-|------------------2-0h2-|
|----------------------------|-3-3-3---3-2-0-0-0-------|-------------------|-3-----------0-0--------|

|---------------------|------------------------|----------------------|-------------------------|
|---------------------|-5-----5-5-4-2----------|---7-7-5----------0h2-|-5----5-7-5--------------|
|---0-0-0-2-3---3-3h5-|----------------0h2-0h2-|-0------7-5-3---3-----|------------7---7-5-0h2--|
|---------------------|---3-3------------------|----------------------|-------------------------|




ENJOY!!!
Comments