Metallica - Unforgiven Chords & Tabs

 

Unforgiven Chords & Tabs

Metallica Chords & Tabs

Version: 2 Type: Bass Tab 0 ratings
1 star 2 stars 3 stars 4 stars 5 stars
comments

Unforgiven Bass Tab

   
Tabbed By: Martinez
E-mail: Joshy_86@hotmail.com
Tuning:G,D,A,E

Intro:
Make like a bell this is the real introduction of the bass, it's funny to do this
G|-----------------------------------------------------------------|
D|-----------------------------------------------------------------|
A|--0----0----0----0----0----0----0----0----0----0----0----0----0--|
E|-----------------------------------------------------------------|
Chorus:
G|------------------------------------|
D|------------------------------------|
A|--0-2-2-3-3--3-2---2--0-0-2-3-------|
E|--------------3---------0-----------|
[ Tab from: http://www.guitartabs.cc/tabs/m/metallica/unforgiven_btab_ver_2.html ]
G|------------------------------------|
D|-----------222----------------------|
A|-0-2-3-3------5-3--2---0-0-2-3------|
E|--------------------------0---------|
Verso: ok here is my homework
(New bloods join this earth) do this all the time then change
G|------------------------------------------------------------|
D|------------------------------------------------------------|
A|----------------------------------5555555555----------------|
E|--5555555555--00000000--5555555555----------555555555-------|

Ok this is the little change:
(……He knows a vow unto his own…) 
G|-----------------------------------------------------------------|
D|-----------------------------------------------------------------|
A|-----------------3333333333---------------333333333--------------|
E|--5555555555----------------3333333333-------------3333333333----|

Then chorus
And repeat the verse in the bridge
Is very simple well I hope to get the number 1 in this tab
Is not incomplete you had to listen.
Comments