Metallica - Unforgiven 2 Chords & Tabs

 

Unforgiven 2 Chords & Tabs

Metallica Chords & Tabs

Version: 6 Type: Tab 0 ratings
1 star 2 stars 3 stars 4 stars 5 stars
comments

Unforgiven 2 Tab

   
A5
x 0 2 2 x x C5
x 3 5 5 x x G5
3 5 5 x x x E5
0 2 2 x x x 
Am
x 0 2 2 1 0 Cadd9
x 3 2 0 3 3 G
3 2 0 0 3 3 Em
0 2 2 0 0 0 
Asus2
x 0 2 2 0 0 G/B
x 2 x 0 3 x D5
x x 0 2 3 x 

Gtr I (Eb Ab Db Gb Bb Eb) - 'James Hetfield - Rhythm w/dist'
Gtr II (Eb Ab Db Gb Bb Eb) - 'Kirk Hammett - Rhythm w/dist'
Gtr III (Eb Ab Db Gb Bb Eb) - 'Kirk Hammett - Rhythm / Lead clean'
Gtr IV (Eb Ab Db Gb Bb Eb) - 'James Hetfield - Lead / Rhythm clean w/B-Bender'
Gtr V (Eb Ab Db Gb Bb Eb) - 'James Hetfield - Rhythm / Lead w/dist'
Gtr VI (Eb Ab Db Gb Bb Eb) - 'Kirk Hammett - Rhythm / Lead and Horn arr. for Gtr.'

Intro
  Q=68
 4/4
           Gtr I
           |-Rhy Fig 1                                     end Rhy Fig 1-|
              A5      C5             G5              E5
  W           Q.    E Q.      E       Q.     E         Q.          E
              |     | |       |       |      |         |           |
              /     / /       /       /      /         /           /

  Gtr VI   Gtr II
  <
  W           H       E E  E  S  S    Q..       +S     E  E  S  S  S  S
|----------||----------------------|-------------------------------------|
|----------||----------------------|-------------------------------------|
|----------||----------------------|-------------------------------------|
|-3--------||-7-------7s9s10-12s10s|=12--------(12)\-/14s12-10s12s10-10--|
|----------||----------------------|-------------------------------------|
|----------||-5-------5s7s=8-10s=8s|=10--------(10)\-/12s10--8s10s=8--8--|
|
|          Gtr III
| W           Q   Q   Q    Q          Q    Q           Q     Q
|----------||-0---0---0----0-------|--3----3-----------0-----0-----------|
|----------||-1---1---1----1-------|--0----0-----------0-----0-----------|
|----------||-2---2---0----0-------|--0----0-----------1-----1-----------|
|----------||-2---2---2----2-------|--0----0-----------2-----2-----------|
|----------||-0---0---3----3-------|-------------------2-----2-----------|
|----------||----------------------|--3----3-----------0-----0-----------|
            |-Rhy Fig 1A                                  end Rhy Fig 1A-|


w/Rhy Fig 1 + 1A
   +Q..       +S  E E  E  S  S    Q..       +S     E.S S S E
|------------------------------|-----------------------------||
|------------------------------|-----------------------------||
|------------------------------|-----------------------------||
|-(10)-------(10)S7s9s10-12s10s|=12--------(12)\-/12s7-7s9s7-||
|------------------------------|-----------------------------||
|--(8)--------(8)S5s7s=8-10s=8s|=10--------(10)\-/10s5-5s7s5-||


                                   Gtrs V, VI
  W                                  H                     Q     E.    S
|----------------------------------|---------------------------------------|
|----------------------------------|-----------------------------------5s==|
|----------------------------------|-----------------------------------2s==|
|----------------------------------|---------------------------------------|
|----------------------------------|---------------------------------------|
|----------------------------------|---------------------------------------|
|                                  |-Riff B1                   end Riff B1-|
| Gtr IV
| E. S S S S S E S S S    +S   E     S   +E  S S S   +S  S E S S S S S S
|------0-----------------------3---|-3---(3)---3---------------------------|
|--------1-----------3b5==(3)-(3)r-|-3b5r(3)-----3b5r(3)---0-----1s3s1p0---|
|------------------0---------------|-------------------------0---2s4s2p0---|
|----2-----------2-----------------|---------------------------2-----------|
|-0--------0-2-3-------------------|---------------------------------------|
|----------------------------------|---------3-----------0-----------------|
|-Rhy Fig 2

   Q.          S  S  Q.               a      +E
|-----------------------------------------------------|
|-10----------10-12-13---------------12b13==(12)r=====|
|--5-----------5--7--9----------------7b9====(7)r=====|
|-----------------------------------------------------|
|-----------------------------------------------------|
|-----------------------------------------------------|
|-Riff B
|
|  E  S S S S  S  S  E  S S S    +E               S
|---------0---------------------------------------3---|
|-----------1---------------3b5==(3)-------------(3)r-|
|-------2-----------------0---------------------------|
|-----2-----------------2-----------------------------|
|--0-----------0--2--3--------------------------------|
|-----------------------------------------------------|


   +Q.               a       +S   +S  Q.         E
|---------------------------------------------------||
|-(12)--------------12pb13==(12)r(12)-9----------9s=||
|--(7)---------------7pb9====(7)r=(7)-4----------4s=||
|---------------------------------------------------||
|---------------------------------------------------||
|---------------------------------------------------||
|                                        end Riff B-|
|
|   S   +E  S S S            +S    S  E  S S a E E
|---3---(3)---3-------------------------------------||
|---3b5r(3)-----3b5r=========(3)------0------1s3-1--||
|----------------------------------------0---2s4-2--||
|------------------------------------------2--------||
|---------------------------------------------------||
|-----------3----------------------0----------------||
                                      end Rhy Fig 2-|

 Verse 1
Rhy Fig 1A x4 + Rhy Fig 2 x2


w/Riff A
  Gtrs III, IV
  Am           Cadd9            G                    Em
  E. S E S S S E   S  E  S  S    E.  S E S   S     S E    S  E     S  S
  |  | | | |   |   |  |  |  |    |   | | |   |       |    |  |     |  |
  /  / / / /   /   /  /  /  /    /   / / /   /       /    /  /     /  /
|-----------------------------|-----------------------------------------|


  Am                 Cadd9            G                    Em
    E.  S E S   S  S E   S  E  S  S    E.  S E S   S     S E S E   S S
    |   | | |   |    |   |  |  |  |    |   | | |   |       | | |   | |
    /   / / /   /    /   /  /  /  /    /   / / /   /       / / /   / /
|-----------------------------------|----------------------------------||



 Verse 2
w/Rhy Fig 2 x2
  Gtr III
  E  E   Q       E E   Q               E       E   Q           E E   Q
|------------------------------------|--------------------------------------
|------------------------------------|--------------------------------------
|--------2-------------0-------------|-------------0-----------------1------
|----2-------------2-----------------|--------------------------------------
|-0--------------3-------------------|---------2-----------------2----------
|------------------------------------|-3-----------------------0------------
|-Rhy Fig 3                                                    end Rhy Fig 3

w/Rhy Fig 3 x3
                                    Gtrs V, VI
  W                                   H                       Q       E.   S
|-----------------------------------|---------------------------------------
|-----------------------------------|------------------------------------5s=
|-----------------------------------|------------------------------------2s=
|-----------------------------------|---------------------------------------
|-----------------------------------|---------------------------------------
|-----------------------------------|---------------------------------------


   Q.          S  S  Q.               a      +E
|-------------------------------------------------|
|-10----------10-12-13---------------12b13==(12)r=|
|--5-----------5--7--9----------------7b9====(7)r=|
|-------------------------------------------------|
|-------------------------------------------------|
|-------------------------------------------------|


   +Q.                 a       +S   +S  Q.         E
|-------------------------------------------------------|
|-(12)----------------12pb13==(12)r(12)-9----------9s===|
|--(7)-----------------7pb9====(7)r=(7)-4----------4s===|
|-------------------------------------------------------|
|-------------------------------------------------------|
|-------------------------------------------------------|


   Q.          S  S  Q.               a      +E
|-----------------------------------------------------|
|-10----------10-12-13---------------12b13==(12)r=====|
|--5-----------5--7--9----------------7b9====(7)r=====|
|-----------------------------------------------------|
|-----------------------------------------------------|
|-----------------------------------------------------|


   +Q.                 a       +S   +S  Q.         E
|------------------------------------------------------|
|-(12)----------------12pb13==(12)r(12)-9----------9s==|
|--(7)-----------------7pb9====(7)r=(7)-4----------4s==|
|------------------------------------------------------|
|------------------------------------------------------|
|------------------------------------------------------|


   H           H          E      S  S  E  E   E      E  E  E
|----------------------|-------------------------------------|
|-10---------/10-------|-10b12==10-10-10-10r-10b12==10-10-10r|
|--7----------/7-------|-/7------7--7--7--7--/7------7--7--7-|
|----------------------|-------------------------------------|
|----------------------|-------------------------------------|
|----------------------|-------------------------------------|
|  H           H          E      S  S  E  E   E      E  E  E
|
|  E E Q       E E Q      E      E     Q      E      E  Q
|----------------------|-------------------------------------|
|------3-----------1---|--------------------------------1----|
|----2-----------2-----|---------------0-------------2-------|
|--0-----------3-------|----------------------3--------------|
|----------------------|---------2---------------------------|
|----------------------|--3----------------------------------|
|-Rhy Fig 4A
|
|  E E E S S   E E E E    E      E     E  E   E      E  E  E
|------1---------------|-------------------------------------|
|--------3-------------|-------------------------------------|
|----2-----2---------0-|------------------0----------------0-|
|--0---------------3---|---------------0----------------3----|
|----------------3-----|---------2-------------------3-------|
|--------------1-------|--3-------------------1--------------|
|-Rhy Fig 4

 2/4
    >
   +H
|--------------------------------------------------||
|-(10)---------------------------------------------||
|---9b10==(9)r(9)b10==(9)r(9)b10==(9)r(9)b10==(9)r=||
|--------------------------------------------------||
|--------------------------------------------------||
|--------------------------------------------------||
|   S     +S  +S      +S  +S      +S  +S      +S
|
|   H
|---0----------------------------------------------||
|---0----------------------------------------------||
|---2----------------------------------------------||
|---2----------------------------------------------||
|---0----------------------------------------------||
|--------------------------------------------------||
|                                   end Rhy Fig 4A-|
|   H
|---0----------------------------------------------||
|---0----------------------------------------------||
|---2----------------------------------------------||
|---2----------------------------------------------||
|---0----------------------------------------------||
|--------------------------------------------------||
                                     end Rhy Fig 4-|

   Chorus
   4/4
    Gtrs I, II
        PM      PM    PM      PM      PM      PM    PM      PM
    S S S S E S S S S S S E S S   S S S S E S S S S S S E S S
||------------------------------|------------------------------|
||o-0-1---1-1-1---1-0---0-0-0---|-0-3---3-3-3---3-1---1-1-0----|
||--2-2---2-2-2---2-2---0-0-0---|-0-0---0-0-0---0-0---0-0-0----|
||--2-2---2-2-2---2-2-----------|------------------------------|
||o-0---0-------0-----0---2---3-|-----3-------3-----3-------0--|
||------------------------------|------------------------------|
 |-Rhy Fig 5                                     end Rhy Fig 5-|

  Gtr I
      PM      PM    PM      PM      PM      PM       ~~~~~~
  S S S S E S S S S S S E S S   S S S S E S S  S S S S +S  S E
|-----------------------------|----------------------------------||
|-0-1---1-1-1---1-0---0-0-0---|-0-3---3-3-3---------------------o||
|-2-2---2-2-2---2-2---0-0-0---|-0-0---0-0-0---/7-5-4-5-(5)-4-----||
|-2-2---2-2-2---2-2-----------|------------------------------7\--||
|-0---0-------0-----0---2---3-|-----3-------3-------------------o||
|-----------------------------|----------------------------------||
|                             |-Rhy Fill 1        end Rhy Fill 1-|
| Gtr II
|     PM      PM    PM      PM      PM
| S S S S E S S S S S S E S S   S S S S E e    S S S S  S  S E
|-----------------------------|----------------------------------||
|-0-1---1-1-1---1-0---0-0-0---|-0-3---3-3-3---------------------o||
|-2-2---2-2-2---2-2---0-0-0---|-0-0---0-0-0----------------------||
|-2-2---2-2-2---2-2-----------|----------------------------------||
|-0---0-------0-----0---2---3-|-----3---------/5-5-5-5--5--5-0--o||
|-----------------------------|----------------------------------||
                              |-Rhy Fill 1A      end Rhy Fill 1A-|


w/Rhy Fig 1 + 1A x2
|----------------------|------------------------------------|


[ Tab from: http://www.guitartabs.cc/tabs/m/metallica/unforgiven_2_tab_ver_6.html ]
  Gtr VI
    H             E E  E  S  S    Q..        S     E  S  S  E    E
|------------------------------|-----------------------------------||
|------------------------------|-----------------------------------||
|-----------------5s7--9-12s=9s|=12---------12----13-13-13-13---13-||
|------------------------------|-----------------------------------||
|-----------------3s5--7-10s=7s|=10---------10----11-11-11-11---11-||
|------------------------------|-----------------------------------||


 Verse 3
  Gtr IV
   E      +Q.       +Q.     E   E  Q    +E    E   E   E  +E
|-----------------------------|-8p=7----(7)/-12h=13--12-(12)/-|
|-17pb18r(17)------(17)-------|-8-(8)---(8)/-12-(12)-12-(12)/-|
|-----------------------------|-7-(7)---(7)/-13-(13)----------|
|-19-----(19)------(19)-------|-------------------------------|
|-----------------------------|-------------------------------|
|-----------------------------|-------------------------------|
|-Rhy Fig 6A                                   end Rhy Fig 6A-|
|          
| Gtr III
|  E       E   E E   E  E E E   E  E  E  E    E   E   E   E
|--8-----------8-----8----8---|-7-----7-------7-------7-------|
|-10----------10-----8----8---|-8-----8-------9-------9---9---|
|----------9-----9------9---9-|----7-----7--------9-----------|
|-----------------------------|-------------------------------|
|-----------------------------|-------------------------------|
|-----------------------------|-------------------------------|
|-Rhy Fig 6                                     end Rhy Fig 6-|


w/Rhy Fig 6A
   E       E   E E   E  E E E   E  E  E  E    E   E   S  S   E
|--8-----------8-----8----8---|-7-----7-------7-------7----------|
|-10----------10-----8----8---|-8-----8-------9-------9h10p==9---|
|----------9-----9------9---9-|----7-----7--------9--------------|
|-----------------------------|----------------------------------|
|-----------------------------|----------------------------------|
|-----------------------------|----------------------------------|


Rhy Fig 6 + Fig 6A + Rhy Fig 3


w/Rhy Fig 6 + Rhy Fig 3
   E      +Q.       +Q.     E   E  E  +Q      E  E  E  E
|-----------------------------|-8p=7--(7)/---12-12-12-12s=|
|-17pb18r(17)------(17)-------|-8-(8)-(8)/---13p12-12-12s=|
|-----------------------------|-7-(7)-(7)/----------------|
|-19-----(19)------(19)-------|---------------------------|
|-----------------------------|---------------------------|
|-----------------------------|---------------------------|


w/Rhy Fig 4A
   Q.      +E   Q.      E    H      H
|-10------(10)s13------13s|=15--------------|
|-10------(10)s13------13s|=15--------------|
|-------------------------|-----------------|
|-------------------------|-----------------|
|-------------------------|-----------------|
|-------------------------|-----------------|
|
|                         Gtrs V, VI
|  W                         H      Q    Q
|-------------------------|-------------13--|
|-------------------------|-----------------|
|-------------------------|-------------10--|
|-------------------------|-----------------|
|-------------------------|-----------------|
|-------------------------|-----------------|
                             H      Q    Q


 2/4
   H
|-12-----------------------------------------------------||
|-10-----------------------------------------------------||
|--------------------------------------------------------||
|--------------------------------------------------------||
|--------------------------------------------------------||
|--------------------------------------------------------||
|
|  S      +S   +S       +S   +S       +S   +S       +S
|-12b13==(12)r(12)b13==(12)r(12)b13==(12)r(12)b13==(12)r=||
|--------------------------------------------------------||
|--9b10===(9)r=(9)b10===(9)r=(9)b10===(9)r=(9)b10===(9)r=||
|--------------------------------------------------------||
|--------------------------------------------------------||
|--------------------------------------------------------||
   S      +S   +S       +S   +S       +S   +S       +S

 Chorus
 Rhy Fig 5 x1.5
 Rhy Fills 1 + 1A
 Rhy Fig 5


  Gtr I
      PM      PM    PM      PM      PM      PM
  S S S S E S S S S S S E S S   S S S S E S S  S S S S S   +S  S   S
|-----------------------------|--------------------------------------||
|-0-1---1-1-1---1-0---0-0-0---|-0-3---3-3-3--------------------------||
|-2-2---2-2-2---2-2---0-0-0---|-0-0---0-0-0---/7p5-7-7-7b9r(7)-5s==4-||
|-2-2---2-2-2---2-2-----------|--------------------------------------||
|-0---0-------0-----0---2---3-|-----3-------3------------------------||
|-----------------------------|--------------------------------------||
|
| Gtr II
|     PM      PM    PM      PM      PM
| S S S S E S S S S S S E S S   S S S S E e    S S S S S    S  E
|-----------------------------|--------------------------------------||
|-0-1---1-1-1---1-0---0-0-0---|-0-3---3-3-3----7-7-7-7-7----7--7b8---||
|-2-2---2-2-2---2-2---0-0-0---|-0-0---0-0-0----7-7-7-7-7----7--7b9---||
|-2-2---2-2-2---2-2-----------|--------------------------------------||
|-0---0-------0-----0---2---3-|-----3--------------------------------||
|-----------------------------|--------------------------------------||


 Guitar Solo
w/Rhy Fig 1 x1.5
  Gtr VI
        ~
                            |-3-|
   E. S E S S S   +S  S S S T T T S S
|-------------------------------------|
|-----------5-7b8r(7)-----------------|
|-----------5-7b8r(7)-----------------|
|-/7--7-7-7-----------5s4-5-4h5p4---4-|
|---------------------------------7---|
|-------------------------------------|


  ~~
  E. S E   S  S  S     +S   S  S  S  E.
|--------------------------------------------|
|--------------------------------------------|
|------------17-19b21r(19)-17----17-19b20====|
|-5--5-5-/19------------------19-------------|
|--------------------------------------------|
|--------------------------------------------|


   S   E  +S   T  S.      +S   +S   S   E     +S   S      S  S  S
|-----------------------------------------------------------------|
|-20----------20-------------------20-------------20-----20----20-|
|-----19r(19)----19pb21==(19)r(19)-----19b21r(19)-19b21=====19----|
|-----------------------------------------------------------------|
|-----------------------------------------------------------------|
|-----------------------------------------------------------------|


  G5                      E5
   E  E +S       S   E     E        E  S     S  E
   |  |  |       |   |     |        |  |     |  |
   /  /  /       /   /     /        /  x     x  x

   Q     S      +S   S  S  S  E.       E        E
|------------------------------------------------------|
|-20-------------------------20b22====20b22====20b22===|
|-19r---19pb20r(19)-17----17---------------------------|
|----------------------19------------------------------|
|------------------------------------------------------|
|------------------------------------------------------|

w/Rhy Fig 5 x1.5
   ~~~~~~                                      ~~~~
   E        +S      S  S  S  E        a       +E     +S      S  S  S  E
|---------------------17---------------------------------------17-----------
|-20b22====(20)r\-/17----17-20b22r==(20)b22==(20)---(20)r\-/17----17-20b22==
|---------------------------------------------------------------------------
|---------------------------------------------------------------------------
|---------------------------------------------------------------------------
|---------------------------------------------------------------------------


                          |---3---|
   +S      S  S  S  E     S  S    S  S     +T   T  T  T  S  S  S  S  S
|------------17----------17--------------------------------------------|
|-(20)r\-/17----17-20b21----20---17------------------------19-------19-|
|-----------------------------------19b21r(19)p17-19p17----19-17----19-|
|-------------------------------------------------------19-------19----|
|----------------------------------------------------------------------|
|----------------------------------------------------------------------|


   S  S  S  S  S  S  S  S  S  S  E       T  T  S  S  S
|----------------------------------------------------------|
|-------19-------19----------------------------------------|
|-17----19-17----19-17----17-19-19b21---19p17----17-19b21==|
|----19-------19-------19---------------------19-----------|
|----------------------------------------------------------|
|----------------------------------------------------------|


                               |----6----| |-------6-------|
   +S   +T   T  S  S  E   S S  S S S S S S S   S     S E   S
|------------------------------------------------------------||
|-----------------19-17\-------------------------------------||
|-(19)r(19)p17----19-17\----5--------------------------------||
|--------------19--------/7----7-5---5-----------------------||
|----------------------------------7---7-6-5---3-------5---3-||
|----------------------------------------------------5-------||
|
|               PM          PM
|                              |---3---|
|   S    S      S  S  E   S S  E   E   E   S     +S    S S
|------------------------------------------------------------||
|---0----3---------3--3---3----------------------------------||
|---0----0---------0--0---0---/7---5---7---7b9r==(7)---5s4---||
|------------------------------------------------------------||
|---------------3-----------3--------------------------------||
|------------------------------------------------------------||


w/Rhy Fig 1 x2 + Riff A
  Gtr VI
  H      E E  E  S  S    H               H
|---------------------|-----------------------------------|
|---------------------|-----------------------------------|
|--------5s7--9-12s=9s|=12--------------13----------------|
|---------------------|-----------------------------------|
|--------3s5--7-10s=7s|=10--------------10----------------|
|-5-------------------|-----------------------------------|



    Q..      +S  E E  E  S  S    Q..       S     Q.       S  S
|-----------------------------|--------------------------------|
|-----------------------------|--------------------------------|
|--14-------(14)S5s7--9-12s=9s|=12--------12----13-------13-14-|
|-----------------------------|--------------------------------|
|--12-------(12)S3s5--7-10s=7s|=10--------10----11-------11-12-|
|-----------------------------|--------------------------------|


  Gtr IV
  E. S S S S S E S S S    +S   E     S   +E  S S S   +S  S E S S S S S S
|------0-----------------------3---|-3---(3)---3--------------------------||
|--------1-----------3b5==(3)-(3)r-|-3b5r(3)-----3b5r(3)---0-----1s3s1p0--||
|------------------0---------------|-------------------------0---2s4s2p0--||
|----2-----------2-----------------|---------------------------2----------||
|-0--------0-2-3-------------------|--------------------------------------||
|----------------------------------|---------3-----------0----------------||


 Verse 4
 Rhy Fig 2
 Rhy Fig 4


 Out-Chorus
 Rhy Fig 5 x1.5
 Rhy Fills 1 +1A
 Rhy Fig 5 x2


w/Rhy Fig 5 x2
    Gtr III
                    ~                      ~~~~~~
    Q       E E   a Q       E.   S   S S S S +H.
||---------------------------------|--------------------------------|
||o--------------------------------|--------------------------------|
||------------4---4h5-------5----5-|-5-4----------------------------|
||----------7----------------------|-----5-5-(5)--------------------|
||o--------------------------------|--------------------------------|
||---------------------------------|--------------------------------|


                                 1.
                  ~
  Q       E E   A Q       Q       H             H
|-------------------------------|------------------------------||
|-------------------------------|-----------------------------o||
|-----------4---4h5-------7-----|-5----------------------------||
|---------7---------------------|------------------------------||
|-------------------------------|-----------------------------o||
|-------------------------------|------------------------------||


  2.
   H             H
|----------------------------------|
|--5-------------------------------|
|----------------------------------|
|----------------------------------|
|----------------------------------|
|----------------------------------|
|
|      PM
|  S S S S E E   S S S S S S E
|----------------------------------|
|--0-3---3-3-3---7-7-7-7-7-7-7b8---|
|--0-0---0-0-0---7-7-7-7-7-7-7b9---|
|----------------------------------|
|------3---------------------------|
|----------------------------------|
|
|      PM      PM    PM          PM
|  S S S S E S S S S S S E   S   S
|----------------------------------|
|--0-3---3-3-3---3-1---1-1---0-----|
|--0-0---0-0-0---0-0---0-0---0-----|
|----------------------------------|
|------3-------3-----3-----------0-|
|----------------------------------|


 Gradual Rit.
  Gtrs I, II
  Am       G/B        AsAm2    D5       A
  S E. +Q  S E. +Q    S E. +Q  S E. +E. S
  | |   |  | |   |    | |   |  | |   |  |
  / /   /  / /   /    / /   /  / /   /  o
|-------------------|---------------------|


  Am         G          G5
  Gtr II
  S E. +Q    S E. +Q    W          W
  | |   |    | |   |    |
  / /   /    / /   /    /

  Gtr I                          Gtr VI
                        >          <
  S E. +E  E S E.  Q    W          Q.   +E     +H
|---------------------|----------|---------------------*|
|-1-1--(1)-1----------|----------|---------------------*|
|-2-2--(2)-2-4-2---0--|----------|-4----(4)b6==(4)r----*|
|-2-2--(2)-2-0-0------|-5--------|-2----(2)----(2)-----*|
|-0-0--(0)-0----------|-5--------|-0----(0)----(0)-----*|
|------------3-3------|-3--------|---------------------*|
Comments