Metallica - Unforgiven 2 Chords & Tabs

 

Unforgiven 2 Chords & Tabs

Metallica Chords & Tabs

Version: 1 Type: Tab 0 ratings
1 star 2 stars 3 stars 4 stars 5 stars
comments

Unforgiven 2 Tab

--------------------------------------------------------------
               unforgiven 2 - Metallica
--------------------------------------------------------------

By:LeeWatts (K!llaH)   IMPROVEMENTS=LR_WATTS@YAHOO.COM

DISTORTION
eb|--------------------------------------------------------|
Bb|-----------------------------------------15-14-12--12-14|
Gb|-------5-7-5h7p5-4-5-7-4h5p4-5-----/12-14--------14-----|
Db|-/7-7-7-----------------------5-5-5---------------------|
Ab|--------------------------------------------------------|
Eb|--------------------------------------------------------|


eb|----------15--------15-----------------------15b17-15b17|
Bb|--14h15b16--14h15b16--14h15b16-15-13-12-13-13-----------|
Gb|--------------------------------------------------------|
Db|--------------------------------------------------------|
Ab|--------------------------------------------------------|
Eb|--------------------------------------------------------|

[ Tab from: http://www.guitartabs.cc/tabs/m/metallica/unforgiven_2_tab.html ]
eb|-15b17-15--/17--------------------17-------------17-----|
Bb|--------------17-20b21-20b21---/17--17-20b21--/17--17---|  
Gb|--------------------------------------------------------|
Db|--------------------------------------------------------|
Ab|--------------------------------------------------------|
Eb|--------------------------------------------------------|


eb|---------------17----------------------------------------|
Bb|-20b21------/17--17-20b21-20p17--------------------------|
Gb|-------------------------------19-19b20-19p17------------|
Db|----------------------------------------------19/20------|
Ab|---------------------------------------------------------|
Eb|---------------------------------------------------------|


eb|---------------------------------------------------------|
Bb|-19-17--19-17---19-17--19-17-----------------------------|
Gb|-19-17--19-17---19-17--19-17-----17-19b20-19p17--17-19b21|
Db|------19-----19------19-----19-19--------------19--------|
Ab|---------------------------------------------------------|
Eb|---------------------------------------------------------|


eb|--------------------------------------------------------|
Bb|--------------------------------------------------------|
Gb|-19p17--16----------------------------------------------|
Db|------19--19--------------------------------------------|
Ab|------------/15-18-17-15-14-15-13-12-11-9-8-9-7-6-------|
Eb|--------------------------------------------------------|
Comments