Metallica - Unforgiven 2 Live Chords & Tabs

 

Unforgiven 2 Live Chords & Tabs

Metallica Chords & Tabs

Version: 1 Type: Tab 0 ratings
1 star 2 stars 3 stars 4 stars 5 stars
comments

Unforgiven 2 Live Tab

   
MetallicA - Unforgiven II live 
tabbed live by Jeremy Antoine
rate this tab please
all guitar tune down 1/2 step


  Riff A (kirk)
eb---------------------------------------------------------------------------------
bb---------------------------------------------------------------------------------
gb---------------------------------------------------------------------------------
db--7--7/9/10-12\10/12--14\12--10/12\10--7/9/10--12\10/12--12\7--7/9\7-------------
ab---------------------------------------------------------------------------------
eb--5--5/7/8--10\8/10---12\10--8//10\8---5/7/8---10\\8/10--10\5--5/7\5-------------

  Rhy.fig 1 (james)     end fig 1 played together with Riff A
eb---------------------------------------------------------------------------------
bb---------------------------------------------------------------------------------
gb--2---2---5---5------------------------------------------------------------------
db--2---2---5---5--5---5---2---2---------------------------------------------------
ab--0---0---3---3--5---5---2---2---------------------------------------------------
eb-----------------3---3---0---0---------------------------------------------------

  Rhy.fig 2 Also the riff which is played during the verse
eb--------0-----------------3-3------3-----------------------------0---------------
bb----------1-----------3fb---3fbr-----3fbr---0-----1/3\1p0----------1-------------
gb--------------------0-------------------------0---2/4\4p0------2-----------------
db------2-----------2-----------------------------2------------2-------------------
ab--0---------0-2-3------------------------------------------0---------0-2-3-------
eb---------------------------------3--------0--------------------------------------
                                   T
                                end fig. 2
eb----------3-3------3-------------------------------------------------------------
bb------3fb---3fbr-----3fbr---0-----1/3-1------------------------------------------
gb----0-------------------------0---2/4-2------------------------------------------
db--2-----------------------------2------------------------------------------------
ab---------------------------------------------------------------------------------
eb-----------------3--------0------------------------------------------------------
                   T
   Rhy.fig 3  2nd verse "lay beside me" played together with fig.2 (2 times)
eb---------------------------------------------------------------------------------
bb---------------------------------------------------------------------------------
gb--------2--------0--------0--------1---------------------------------------------
db-----2--------2------------------------------------------------------------------
ab--0--------3-----------2--------2------------------------------------------------
eb--------------------3--------0---------------------------------------------------

  Rhy.fig 4 "no there's no sun...."
eb-------1------------------------------0------------------------------------------
bb---------3----------------------------0------------------------------------------
gb----2------2-------0-------0-------0--2------------------------------------------
db--0--------------3-------0-------3----2------------------------------------------
ab---------------3-------2-------3------0------------------------------------------
eb-------------1-------3-------1---------------------------------------------------
[ Tab from: http://www.guitartabs.cc/tabs/m/metallica/unforgiven_2_live_tab.html ]
   chorus Rhy.fig 5                                       end
eb---------------------------------------------------------------------------------
bb--0-1---1-1--1---1-0---0-0--0---0-3---3-3--3---3-1---1-1--0----0--1---1-1--1-----
gb--2-2---2-2--2---2-2---0-0--0---0-0---0-0--0---0-0---0-0--0----2--2---2-2--2-----
db--2-2---2-2--2---2-2-------------------------------------------2--2---2-2--2-----
ab--0---0--------0-----0---2----3-----3--------3-----3---------0-0----0------------
eb---------------------------------------------------------------------------------
 PM     .        .     .        .     .        .     .         .      .
                               
eb---------------------------------------------------------------------------------
bb----1-0---0-0---0-----0-3---3-3--3-----------------------------------------------
gb----2-2---0-0---0-----0-0---0-0--0----/7-5-4-5~~--4------------------------------
db----2-2---------------------------------------------\7---------------------------
ab--0-----0---2------3------3--------3---------------------------------------------
eb---------------------------------------------------------------------------------
 PM .     .          .      .        .

  Rhy.fig 6 "come lay beside me.."               end
eb---8------8-----8-----8-----7-----7-----7-----7------8------8-----8-----8-----7--
bb--10-----10-----8-----8-----8-----8-----9-----9-----10-----10-----8-----8-----8--
gb------9------9-----9-----9-----7-----7-----9-----9------9------9-----9-----9-----
db---------------------------------------------------------------------------------
ab---------------------------------------------------------------------------------
eb---------------------------------------------------------------------------------


eb-----7-----7-----7-------8p7--13p12--12-12\10--10/13-13/15--12-------------------
bb-----8-----9-----9h10p9--8----13p12--12-12\10--10/13-13/15--10-------------------
gb--7-----7-----9----------7-------------------------------------------------------
db---------------------------------------------------------------------------------
ab---------------------------------------------------------------------------------
eb---------------------------------------------------------------------------------

  solo
eb---------------------------------------------------------------------------------
bb--------------5-7hbr-------------------------------------------------^--20-------
gb--/7--7-7~~-7-5-7hbr-5\4-5-4h5p4---4-------------17-19fbr-17----17-19fb----19r---
db---------------------------------7---5~~-5-5-/19-------------19------------------
ab---------------------------------------------------------------------------------
eb---------------------------------------------------------------------------------


eb-----------------------------------------------------------------------------17--
bb--20-------20-------20---20----20-20-----------------20fb-20fb-20fb-20fb-/17-----
gb-----19fbr----19fbr-19fb----19----19r-19hbr-17----17-----------------------------
db-----------------------------------------------19--------------------------------
ab---------------------------------------------------------------------------------
eb---------------------------------------------------------------------------------


eb-----------------17-------------17---------17------------------------------------
bb--17-20fbr~~-/17----17-20fb-/17----17-20fb----20-17------------------19-------19-
gb----------------------------------------------------19fbp17-19p17----19-17----19-
db------------------------------------------------------------------19-------19----
ab---------------------------------------------------------------------------------
eb---------------------------------------------------------------------------------


eb---------------------------------------------------------------------------------
bb--------19-------19-----------------------------------------19-17\---------------
gb--17----19-17----19-17----17-19-19fb-19p17----17-19fbp17----19-17\----5----------
db-----19-------19-------19------------------19------------19--------/7---7-5---5--
ab----------------------------------------------------------------------------7----
eb---------------------------------------------------------------------------------


eb---------------------------------------------------------------------------------
bb---------------------------------------------------------------------------------
gb-------------------5/7-9-12\9/12--13--14--5/7--9--12\9/12--12-13--13-14----------
db---------------------------------------------------------------------------------
ab--7-6-5-3---5-3----3/5-7-10\7/10--11--12--3/5--7--10\7/10--10-11--11-12----------
eb----------5------5---------------------------------------------------------------


   / = slide up
   \ = slide down
   h = hammer on
   p = pull off
   b = bend
  hb = half bend
  fb = full bend
 fbr = full bend and then release
 hbr = half bend and then release
   T = string is storke with thumb
   ~ = the string is vabr. with finger
Comments