Metallica - Turn The Page Chords & Tabs

 

Turn The Page Chords & Tabs

Metallica Chords & Tabs

Version: 2 Type: Tab 2 ratings
1 star 2 stars 3 stars 4 stars 5 stars
comments

Turn The Page Tab

   
#----------------------------------PLEASE NOTE--------------------------------#
#This file is the author's own work and represents their interpretation of the#
#song. You may only use this file for private study, scholarship, or research.#
#-----------------------------------------------------------------------------#
#-- File created with Instab - http://www.pconline.com/~smcarey/instab.html --#
#-----------------------------------------------------------------------------#

Author/Artist: Metallica
Title: Turn the page
Album: Garage INC.
Transcribed by: Bobby Allen
Email: therealslimshady_@hotmail.com

This is a really good song by metallica(originally recorded by Bob Seger)
Tune all guitars down 1/2 step
[ Tab from: http://www.guitartabs.cc/tabs/m/metallica/turn_the_page_tab_ver_2.html ]
-0--0-0-0-0-0-0-0-----------0--0-0-0-0-0-0-0----------------------------------
-0--0-0-0-0-0-0-0-----------0--0-0-0-0-0-0-0----------------------------------
-0--0-0-0-0-0-0-0-----------0--0-0-0-0-0-0-0----------------------------------
-2--------2-----------2-----2--------2----------------------------------------
-2----------------------------------------------------------------------------
-0----------------0-3---0-----------------------------------------------------
 1)b Kirk plays this                                                          

-/15-14-----------------------------------------------------------------------
---------15-15----12----------------------------------------------------------
---------------14----12-11----------------------------------------------------
---------------------------12-14----------------------------------------------
------------------------------------------------------------------------------
------------------------------------------------------------------------------
   Then the other solo bit                                                    

------------------------------------------------------------------------------
------------------------------------------------------------------------------
-----------------/12-11-------------------------------------------------------
-14-12---5-7------------12-12---7-9-------------------------------------------
------------------------------------------------------------------------------
------------------------------------------------------------------------------
                                                                              

Comments