Metallica - Tuesdays Gone Chords & Tabs

 

Tuesdays Gone Chords & Tabs

Metallica Chords & Tabs

Version: 2 Type: Tab 0 ratings
1 star 2 stars 3 stars 4 stars 5 stars
comments

Tuesdays Gone Tab

                         Tuesday's Gone  written by Lynrd Skynrd
                                         performed by Metallica

Tabbed by Dave       
scudzoo@hotmail.com

tune all guitars down 1/2 step
1a) rhythm
eb--0-----------0-------2--------2-2h3p2p0-----0----------------0-------2
Bb--2-----------0-------2--------3---------3---2----------------0-------3
Gb--2-----------1-------2--------2-----------2-2----------------1-------2
Db--2-----------2-------4--------0-------------2----------------2-------0
Ab--0-----------2-------4----------------------0----------------2--------
Eb--------------0-------2---------------------------------------0--------

         full      full       half                     
1b) lead ^V         ^V         ^V  
eb-----------------------------------------------------------------
Bb------14--14-12~~12--12------------------------------------------
Gb------------------------14--14-11~~------------------9h11h12-14~~
Db--14~~---------------------------------------9h11h12-------------
Ab-------------------------------------9h10h12---------------------
Eb-----------------------------------------------------------------

1c) lead continued
eb-------^V-----^V-----
Bb--14--14-12~~12--10~~
Gb---------------------
Db---------------------
Ab---------------------
Eb---------------------
intro

[ Tab from: http://www.guitartabs.cc/tabs/m/metallica/tuesdays_gone_tab_ver_2.html ]
2a) lead           ^  ^     ^  ^     ^ ^  ^ 
eb-----------------------------------------------------
Bb--5-3--5-3--5-3--------------------------------------
Gb-----------------4--4--2~~4--4-----4-4--4----2-------
Db--------------------------------2~~-------4~~---0---0
Ab--------------------------------------------------2--
Eb-----------------------------------------------------

2b) lead continued ^   
eb-------------------------------------------------------------
Bb--------------------------5/7--5--3--5-3--5-3--5-3--2-3-5-2--
Gb----------2-4-4--4--2--4--4/6--4--2-------------------------2
Db------2-4----------------------------------------------------
Ab--2-4--------------------------------------------------------
Eb-------------------------------------------------------------


3)
eb--0---0---0---0---2---2---2--2h3p2-------0---0---0---0---2
Bb--2---2---0---0---2---2---3--------3p0---2---2---0---0---3
Gb--2---2---1---1---2---2---2------------2-2---2---1---1---2
Db--2---2---2---2---4---4---0--------------2---2---2---2---0
Ab--0---0---2---2---4---4------------------0---0---2---2----
Eb----------0---0---2---2--------------------------0---0----
verse
follows same progression with different trills each time


4)
eb--0---3---2--3-2-0-2--3-2-0-2--3-2-0-3       -0---0---2
Bb--2---0---3--3-3-3-3--3-3-3-3--3-3-3-3       -2---0---3
Gb--2---0---2--2--------2--------2------ three -2---1---2
Db--2---0---0--------------------------- times -2---2---0
Ab--0---2------------------------------- then  -0---2----
Eb------3-------------------------------       -----0----
chorus
"Tuesday's gone with the wind"


5)
eb--0---0---2--3-2-0-2--3-2-0-2
Bb--2---0---3--3-3-3-3--3-3-3-3
Gb--2---1---2--2--------2------
Db--2---2---0------------------
Ab--0---2----------------------
Eb------0----------------------
"Lord I can't change"

Comments