Metallica - Tuesdays Gone Chords & Tabs

 

Tuesdays Gone Chords & Tabs

Metallica Chords & Tabs

Version: 1 Type: Tab 2 ratings
1 star 2 stars 3 stars 4 stars 5 stars
comments

Tuesdays Gone Tab

   
Metallica 

Tuesdays Gone

Tuned down 1/2 a step

Im not sure if this is 100% right but its sounds ok, just improvise a bit and it'll sound cool

Intro

E|--9--10--9--9--7--9--7--7--5-7p5----5--5h7--5h7--5-------9--10--9--9--7--9p7--5--12--10--12--10
B|---------------------------------7-------------------------------------------------------------
G|-----------------------------------------------------------------------------------------------
D|-----------------------------------------------------------------------------------------------
A|-----------------------------------------------------------------------------------------------
E|-----------------------------------------------------------------------------------------------
[ Tab from: http://www.guitartabs.cc/tabs/m/metallica/tuesdays_gone_tab.html ]
E|-----------------------------------------------------------------------------------
B|-----------------------------------------------------------------------------------
G|--4^6--4^6--4^6--2--4^6--4^6--4^6-----4^6--4^6--4^6-----2-----------------------2h4
D|-----------------------------------2-----------------4-------------------2h4-------
A|-------------------------------------------------------------5p4h5--2h4------------
E|-----------------------------------------------------------------------------------

E|---------------------------------------|----0---------0---------0------------------
B|--5----5----5----------5--5----5----5--|-------3---------3---------3---------------
G|--4^6--4^6--4^6--2-----4--4^6--4^6--4--|-----------------------------------4^6--2--
D|--------------------2------------------|-0---------0---------0---------------------
A|---------------------------------------|-------------------------------------------
E|---------------------------------------|-------------------------------------------

The chords are

Verse 

A, E, F#m, D 
A, E, D, then end of intro

Chorus

A, G, D
A, E, D


Hope it helps

Fredrik

Comments