Metallica - Trapped Under Ice Chords & Tabs

 

Trapped Under Ice Chords & Tabs

Metallica Chords & Tabs

Version: 4 Type: Tab 0 ratings
1 star 2 stars 3 stars 4 stars 5 stars
comments

Trapped Under Ice Tab

Trapped Under Ice
-----------------


E|-------------------------------------------------------------------|
B|--------------------------------2----------------------------------|
G|--------------------------------2----------------------------------|
D|--------0--2-----------------0--2---------------------4-4-4-4-4----|
A|--------0--2--------------------0---------------------2-2-2-2-2----|
E|--0---0----------------0---0---------------------------------------|
    PM--|                PM--|                          PM----|


   Play Eight Times
E|------------------------------------------------|
B|------------------------------------------------|
G|------------------------------------------------|
D|--------0--2-----------------0---2--0---3--3----|
A|--------0--2-----------------0---2--0---3--3----|
E|--0---0----------------0---0--------------------|

   Other Guitar Starting Fifth Time
E|----------------------------------------------------------
B|----------------------------------------------------------
G|--11-----------12------------14------/17----16------9-----
D|--11-----------12------------14------/17----16------9-----
A|--9------------10------------12------/15----14------7-----
E|----------------------------------------------------------

 --------------------------------------------------------------|
 --------------------------------------------------------------|
 ---------11------------12------------14-----------------------|
 ---------11------------12------------14--------sl-------------|
 ---------9-------------10------------12-----(12)/19--19-------|
 --------------------------------------------------------------|


  Rhythm during Solo and Verses
E|-------------------------------------------------------------------|
B|-------------------------------------------------------------------|
G|-------------------------------------------------------------------|
D|--/H\--------------/H\--------------/H\---------------5--4-2--4----|
A|--4----------------4----------------4-----------------3--2-0--2----|
E|--0-2-2-2-2-2-2-2--0-2-2-2-2-2-2-2--0-2-2-2-2-2-2-2----------------|
    PM----------------------------------------------|
[ Tab from: http://www.guitartabs.cc/tabs/m/metallica/trapped_under_ice_tab_ver_4.html ]
    Chorus
E|------------------------------------------------------------------------
B|------------------------------------------------------------------------
G|------------------------------------------------------------------------
D|---6---7----------6---7--------2-------6---7-----------6---7----------7-
A|---6---7----------6---7--------2-------6---7-----------6---7----------7-
E|---4---5----------4---5----0---0-------4---5-----------4---5---0--0---5-
     Freezing...    can't..              Screaming...    can't..


 ------------------------------------------------------------------------|
 ------------------------------------------------------------------------|
 ------------------------------------------------------------------------|
 --7--------4--5----------4--5---------5--5-----6--7--------7--8---7--7--|
 --7--------4--5----------4--5---------5--5-----6--7--------7--8---7--7--|
 --5--0-----2--3----------2--3---0--0--3--3--0--4--5--------5--6---5--5--|
                     I   am...                  Cry...      Trapped...
 
   Bit Before Bridge 
E|-------------------------------------------------------------------------|
B|-------------------------------------------------------------------------|
G|-------------------------------------------------------------------------|
D|--7---8-8----7---8---8------5---5------7---7-----------------------------|
A|--7---8-8----7---8---8------5---5------7---7------3----------------------|
E|--5---6-6----5---6---6------3---3------5---5------1--1--1--1--1--1--1--1-|
                                                       PM----------------|

Then

   Play Four Times
E|-------------------------------------------------------------------
B|-------------------------------------------------------------------
G|------------7-----7-------------------------------------------9----
D|------------5-----5-------------------3--2--------------------9----
A|--------------------------3--2--------------3--2--------------7----
E|--0--0-0-0-----------0-0--------5--4---------------0---0-0-0-------

 ----------------------------------------|
 ----------------------------------------|
 -----7----------------------------------|
 -----7----------------------------------|
 -----5----------------------------------|
 --0--------6--6-6-6--6-6-6--6-6-6--6-6--|

   Bridge
E|---------------------------------------------------------------|
B|--9---9---9---------7---7---7----------5---5---4---------------|
G|--9---9---9---------7---7---7----------5---5---4---------------|
D|--9---9---9---------7---7---7----------5---5---4---------------|
A|--7---7---7---------5---5---5----------3---3---2-----------2---|
E|-----------------------------------------------------3--2--0---|
Comments