Metallica - To Live Is To Die Chords & Tabs

 

To Live Is To Die Chords & Tabs

Metallica Chords & Tabs

Version: 3 Type: Tab 2 ratings
1 star 2 stars 3 stars 4 stars 5 stars
comments

To Live Is To Die Tab

   
                   MUSIC BY
           JAMES HETFIELD, LARS ULRICH, AND CLIFF BURTON   
              
          TO LIVE IS TO DIE____FROM THE ...AND JUSTICE FOR ALL  
                                ALBUM

                               
                              |INTRO|

(LET RING)        H   P 
E----------8--7--7^-10^-7-|---7-----7------------------7----10--10---10-|
B----------0--5---------7-|.--7-----7---7--------7-----7-----8--10------|
G----------0--------------|---7--7--7------7---7-------7--------11------|
D-------------------------|---9--9------9--------------9--------12-12---|
A-------------------------|.--9---------------------------------12------|
E-------------------------|---7--------------7------7-----7-----10------|
               H  P
E-------------------------0-0--12-----------------7--7-/-12---12-----12--|
B--11-----7-8-7-^8-^-7----0-0--0-------------8-8--------------12---------|
G---------7-7-7--------9--9-11-9-------------9-9--7--7-/--9---12---------|
D-----12------------------------------------------------------14-14------|
A-------------------------------------/-9-7-------------------14---------|
E----------------------------------0---------------------------0--0------|
                    H  P
E----------8--7--10-7^10^7------------|-7------7---------------------7---10------|
B--12--12--0--5---0------7----------.-|-7------7---7---------7-------7----8------|
G---9---9--0------0-------------------|-7---7--7------7----7---------7-----------|
D---9-------------------------------.-|-9---9------9-----------------9-----------|
A--10---------------------------------|-9----------------------------------------|
E-------------------------------------|-7----------------7-------7------7--------|
                         H  P
E-10------10----------------------0--0-12----------||
B-10-----------------7-8-7^8^7----0--0--0----------||
G-11----------11-----7-8-7-----9--9-11--9----------||
D-12--12-------------------------------------------||
A-12-------------12--------------------------------||
E-10-----------------------------------------------||


E----------------------------------------------------------------------------------------------------|
B-2------2\----X--X----------3------3----X---X----3\-2-----2----2\--X--X---------5----5------5\-3----|
G-3------3\----X--X----------4------4----X---X----4\-3-----3----3\--X--X---------6----6--X---6\-4----|
D-4------4\----X--X---2--4---5------5----X---X----5\-4-----4----4\--X--X---2--4--7----7--X---7\-5----|
A-4------4\----X--X---2--4---5------5----X---X----5\-4-----4----4\--X--X---2--4--7----7------7\-5----|
E-2------2\-----------0--2---3------3-------------3\-2-----2----2\---------0--2--5----5------5\-3----|
              P.M.----------------------------------|  PM.    PM    PM   PM       PM-----------------------|H|-|H|---|
E---------||---------------------------------------------------------------------|-----------------------------------|             
B--3\2----||---------------------------------------------------------------------|-----------------------------------|
G--4\3----||---------------------------------------------------------------------|-----------------------------------|
D--5\4----||----------------------------------%----------------------------------|-----------------------------------|
A--5\4----||--4-4-4--5-5-5-4--4-4-7--7-7------%---------4---5--4--7--4--5--4-7---|-----------------------------------|
E--3\2----||--2-2-2--3-3-3-2--2-2-5--5-5------%---------2---3--2--5--2--3--2-5---|-2-3-2-5-2-3-2-5-2-3-2-5--2^3-2^3--|
                                                                                                                     
E-------------------------------------------------------------------------------------|
B---2---2\---X-X--------3--3--X-X---3\-2---2---2\--X-X---------5----5-----5\-3-3\-2---|
G---3---3\---X-X--------4--4--X-X---4\-3---3---3\--X-X---------6----6--X--6\-4-4\-3---|
D---4---4\---X-X--2--4--5--5--X-X---5\-4---4---4\--X-X---2-4---7----7--X--7\-5-5\-4---|
A---4---4\---X-X--2--4--5--5--X-X---5\-4---4---4\--X-X---2-4---7----7-----7\-5-5\-4---|
E---2---2\--------0--2--3--3--------3\-2---2---2\--------0-2---5----5-----5\-3-3\-2---|     

[ Tab from: http://www.guitartabs.cc/tabs/m/metallica/to_live_is_to_die_tab_ver_3.html ]
         P.M.----------------------------------|  PM.    PM    PM   PM       PM-----------------------|H|-|H|---|
E---------------------------------------------------------------------------|-----------------------------------|             
B---------------------------------------------------------------------------|-----------------------------------|
G---------------------------------------------------------------------------|-----------------------------------|
D----------------------------------------%----------------------------------|-----------------------------------|
A--------4-4-4--5-5-5-4--4-4-7--7-7------%---------4---5--4--7--4--5--4-7---|-----------------------------------|
E--------2-2-2--3-3-3-2--2-2-5--5-5------%---------2---3--2--5--2--3--2-5---|-2-3-2-5-2-3-2-5-2-3-2-5--2^3-2^3--|

E-------------------------------------------------------|
B-------------------------------------------------------|
G--11\----6------4--6-----7\--4----4--6--6\---3--3--2---|
D-------------------------------------------------------|
A---9\----4------2--4-----5\--2----2--4--4\---1--1--0---|
E-------------------------------------------------------|
 
    PM--|      PM             PM                PM 
E------------------------------------------------------------------------|
B------------------------------------------------------------------------|
G----------------------------------------2------------------------------|
D---------2--------5--4--2---------------2------------X-X--6--5--4------|
A--4--4---0----4---3--2--0---4-----------0-------4----X-X--4--3--2------|
E--2--2--------2-------------2-------------------2----X-X---------------|


    PM--|      PM             PM                PM 
E------------------------------------------------------------------------|
B------------------------------------------------------------------------|
G-----------------------------------------2------------------------------|
D---------2--------5--4--2-------X-X-X----2------------X-X--6--5--4------|
A--4--4---0----4---3--2--0---4---X-X-X----0-------4----X-X--4--3--2------|
E--2--2--------2-------------2---X-X-X------------2----X-X---------------|
                                                  H P     H P 
E----)----------)-------------)-------------------------------------------|
B--5---2------6---3---------5---2-----------------------------------------|
G-----------------------------------------2-2----2^4^2\1--1^2^1-----------|
D---------4-----------5------------4---4-------------------------4--------|
A-------------------------------------------------------------------------|
E-------------------------------------------------------------------------|

         P.M.----------------------------------|  PM.    PM    PM   PM       PM-----------------------|H|-|H|---|
E---------------------------------------------------------------------------|-----------------------------------|             
B---------------------------------------------------------------------------|-----------------------------------|
G---------------------------------------------------------------------------|-----------------------------------|
D----------------------------------------%----------------------------------|-----------------------------------|
A--------4-4-4--5-5-5-4--4-4-7--7-7------%---------4---5--4--7--4--5--4-7---|-----------------------------------|
E--------2-2-2--3-3-3-2--2-2-5--5-5------%---------2---3--2--5--2--3--2-5---|-2-3-2-5-2-3-2-5-2-3-2-5--2^3-2^3--|
 

                       |SOLO|

E------)---------------------------------------------------------)------------------------------------
B---16--------------------------------------------------------17----17-16-14--------------------------
G---16--------------------14-16-16-16--16-16-X-14--16-16-14------------------16-14----14-16-16--------
D----------------------------------------------------------------------------------16-----------------
A-------------------------------------------------------------------------------------------------------
E-------------------------------------------------------------------------------------------


I'LL FINISH THE REST LATER ITS TOO LATE RIGHT NOW I'LL POST THE REST OF THE SOLO TOMMARROW 
      *FLICK TOGGLE SWITCH                                       
Comments