Metallica - Thorn Within Chords & Tabs

 

Thorn Within Chords & Tabs

Metallica Chords & Tabs

Version: 1 Type: Tab 0 ratings
1 star 2 stars 3 stars 4 stars 5 stars
comments

Thorn Within Tab

Thorn Within
by Hetfield, Ulrich, Hammett
as performed on Load
tab by Phil Boyle; phil@encycmet.com


tune all guitars down 1/2 step
1a)
Gb----------2 
Db-2---2----2 
Ab-2---2----0 
Eb-0-3-0--3-- 
intro

1b)
eb-----------
Bb--1-3-4-3--
Gb----------2
Db-----------
Ab-----------
Eb-----------
lead intro (all artifical harmonics)


2)
Db---------------------------------------------
Ab----4---3---2---1---0-----4--4--4-4-0--5--4p0
Eb--2---2---2---2---2---0-0-2--2--2-2-0--3--2p0

[ Tab from: http://www.guitartabs.cc/tabs/m/metallica/thorn_within_tab.html ]
3a)
eb------0---------------------0--0-0------0
Bb--------0------/4-----------0--2-2---4--2
Gb---------------/4--4-4-5-4--4--3-3---4--3
Db----2--------0--------------5--4-4---4--4
Ab--0--------3----------------5--4-4---2--4
Eb----------------------------3--2-2------2
verse with light flange (heavy chorus take your pick)


3b)
Db--------------------------------------4-4-4-4--------
Ab----5---5/7----7---7/9----9-9\5--5\4--2-2-2-2-4-4-4-4
Eb--0-3-0-3/5--0-5-0-5/7--0-7-7\3--3\2----------2-2-2-2
crunch


4)
Db-------------------------
Ab--5-5--5-5--5-5--5-5--5/7
Eb--3-3--3-3--3-3--3-3--3/5
I am the thorn within


5)
Db--------------------------------
Ab--7-6--5-5--5--5--5-5--5--5--5-5
Eb--5-4--3-3--3--3--3-3--3--3--3-3
right before the solo

Comments