Metallica - The Unnamed Feeling Chords & Tabs

 

The Unnamed Feeling Chords & Tabs

Metallica Chords & Tabs

Version: 9 Type: Tab 0 ratings
1 star 2 stars 3 stars 4 stars 5 stars
comments

The Unnamed Feeling Tab

   
Well, I just got the tab book for Christmas, and since every tab for this is  quite
wrong, here's the correct intro and verse (The whole song basically repeats these
riffs). Sorry if the staffs get messed up, but yeah, this sounds great.


Tuning: C,G,C,F,A,D 


 Rhy. Fig.1

 Gtr 1 (Dist.) (x1)
|------------------|------------------|------------------|------------------|
|------------------|------------------|------------------|------------------|
|------------------|------------------|------------------|------------------|
|-0~~--------------|------------------|-0~~--------------|------------------|
|-0~~--------------|------------------|-0~~--------------|------------------|
|-0~~------0-------|---0-----0--0--0--|-0~~-------0------|---0-----0--0--0--|
           .           .     .  .  .              .          .     .  .  .
 
 Gtr 1 (Dist.) (x5)
|------------------|------------------|------------------|------------------|
|------------------|------------------|------------------|------------------|
|------------------|------------------|------------------|------------------|
|-0~~--------------|------------------|-0~~--------------|------------------|
|-0~~--------------|------------------|-0~~--------------|------------------|
|-0~~------0-------|---0-----0--0--0--|-0~~-------0------|---0-----0--0--0--|
|          .           .     .  .  .             .           .     .  .  .
|
|Gtr 2 (Slight Dist.)
|------------------|------------------|------------------|------------------|
|------------------|------------------|------------------|------------------|
|------------------|------------------|------------------|------------------|
|-------0---0---0--|-------5---5---5--|-------0---0---0--|-2/3---3-3---3\2--|
|-------0---0---0--|-------3---3---3--|-------0---0---0--|-2/3---3-3---3\2--|
|-0---0------------|-3---3------------|-0---0------------|-2/3---3-3---3\2--|
   
 


 Rhy. Fig.2
 
 Gtr 1 (Dist.)
|------------------|------------------|-----------------|------------------|
|------------------|------------------|-----------------|------------------|
|------------------|------------------|-----------------|------------------|
|-0~~--------------|------------------|-0~~-------------|------------------|
|-0~~--------------|------------------|-0~~-------------|------------------|
|-0~~------0-------|---0-----0--0-----|-0~~------0------|---0-----0--0-----|
|          .           .     .  .                .          .     .  . 
|
|{RIFF A} 
|
|Gtr 2 (Dist.)
|------------------|------------------|-----------------|------------------|
|------------------|------------------|-----------------|------------------|
|------------------|------------------|-----------------|------------------|
|------------------|------------------|-----------------|------------------|
|------------------|------------------|-----------------|------------------|
|-0-0----0-0-------|---0-----0--0-----|-0-0----0-0------|---0-----0--0-----|
  . .    . .           .     .  .       . .    . .          .     .  .

  [Riff B}
[ Tab from: http://www.guitartabs.cc/tabs/m/metallica/the_unnamed_feeling_tab_ver_9.html ]
 Gtr 1 (Dist.)
|-------------------|---------------------|--------------------|---------------------|
|-------------------|---------------------|--------------------|---------------------|
|-------------------|---------------------|--------------------|---------------------|
|------------x--x---|-x------------x--x---|-------------x--x---|-x------------x--x---|
|------------x--x---|-x------------x--x---|-------------x--x---|-x------------x--x---|
|-0-0---0-0--x--x---|-x-0----0--0--x--x---|--0-0---0-0--x--x---|-x-0----0--0--x--x---|
| . .   . .             .    .  .            . .   . .             .    .  .
|
|
|
|Gtr 2 (Dist.)  (Likely some wah on those bends to get the high pitch)
|-------------------|---------------------|-------------------|---------------------|
|-------------------|---------------------|-------------------|---------------------|
|-------------------|---------------------|-------------------|---------------------|
|-------------------|---------------------|-------------------|---------------------|
|-------------------|---------------------|-------------------|---------------------|
|-0-0---0-0--2^-(2)-|---0----0--0--2^-(2)-|-0-0---0-0--2^-(2)-|---0----0--0--2^-(2)-|
              .5                    .5                  .5                    .5       



 Rhy. Fig.3

 Gtr 1 
|-------------------|---------------------|-------------------|--------------------|
|-------------------|---------------------|-------------------|--------------------|
|-------------------|---------------------|-------------------|--------------------|
|-------------------|---------------------|-------------------|--------------------|
|-8--------7--------|--/12---------(12)\--|-8--------7--------|---0------------x/--|
|-8--0--0--7--0--0--|--/12---------(12)\--|-8--0--0--7--0--0--|---0------------x/--|
|    .  .     .  .                             .  .     .  .
|
|
|Gtr 2
|-------------------|--------------------------------|-----------------------------|
|-------------------|--------------------------------|-----------------------------|
|-------------------|--------------------------------|-----------------------------|
|-------------------|--------------------------------|-----------------------------|
|-8--------7--------|-/11/12------------------(12)\--|-8--------------7------------|
|-8--0--0--7--0--0--|-/11/12------------------(12)\--|-8-----0--0-----7-----0--0---|
     .  .     .  .                                           .  .           .  .



Both gtr
|-------------|----------------------|--------------------|-----------------------|
|-------------|----------------------|--------------------|-----------------------|
|-------------|----------------------|--------------------|-----------------------|
|-------------|-/8--------7-----(7)//|/12-----------(12)\\|/8--------7------(7)\--|
|-0-----------|-/8--------7-----(7)//|/12-----------(12)\\|/8--------7------(7)\--|
|-0-----------|-/8--------7-----(7)//|/12-----------(12)\\|/8--------7------(7)\--|
			                 ^v^v^v^v^v^


|-------------------|-------------------|-------------------|------------------|-----|
|-------------------|-------------------|-------------------|------------------|-----|
|-------------------|-------------------|-------------------|------------------|-----|
|-------------------|-------------------|-------------------|------------------|-3-2-|
|-------------------|-------------------|-------------------|------------------|-1-0-|
|-0-0---0-0--2^-(2)-|-0----0--0--2^-(2)-|-0-0---0-0--2^-(2)-|-0---0--0--2^-(2)-|-----|
              .5                  .5                  .5                 .5  


You should be able to figure out the rest.
Comments