Metallica - The Unnamed Feeling Chords & Tabs

 

The Unnamed Feeling Chords & Tabs

Metallica Chords & Tabs

Version: 8 Type: Tab 0 ratings
1 star 2 stars 3 stars 4 stars 5 stars
comments

The Unnamed Feeling Tab

   
T H E  U N N A M E D  F E E L I N G |
                                    |
Artist: Metallica                   |
Album: St. Anger                    |
                                    |
Tabbed By: dave laidlaw             |
Email: dave@tabacana.tk             |
Website: www.tabacana.tk            |
____________________________________|


TUNING: 1 = C    4 = Bb
        2 = G    5 = F
        3 = Eb   6 = Bb	

KEY: PM = Palm Mute
      / = Slide Up
      b = Slight Bend 
      r = Release Bend 
      H = Hammer-On 
      \ = Slide Down


Intro Fig.1
Guitar 1
1-|------------------|    |-----------------------|
2-|------------------|    |-----------------------|
3-|------------------|    |-----------------------|
4-|-2---2---2--2-2-2-|    |-2-2--2-2--x-x--2--2-2-|
5-|-2---2---2--2-2-2-| x8 |-2-2--2-2--x-x--2--2-2-| x4
6-|-2---2---2--2-2-2-|    |-2-2--2-2--x-x--2--2-2-|
            PM . . .       

Guitar 2
1-|--------------------------------------------|
2-|--------------------------------------------|
3-|--------------------------------------------|
4-|-----2-2------7-7-7------2-2--------5-5-5\2-|
5-|---2-2-2----5-5-5-5----2-2-2------5-5-5-5\2-| x5
6-|-2--------5----------2-------2-/5-----------|


Fig.2
Guitar 1
1-|----------------|    |--------|
2-|----------------|    |--------|
3-|----------------|    |--------|
4-|-5---4---2------|    |-5---4--|
5-|-3---2---2------| x5 |-3---2--|
6-|---------2------|    |--------|

Guitar 2
1-|--------------------------------|
2-|--------------------------------|
3-|--------------------------------|
4-|-5---4---9-------5---4---2------|
5-|-3---2---7-------3---2---2------| x4
6-|-------------------------2------|

|------------------------|
|------------------------|
|------------------------|
|-5---4---9-------5---4--|
|-3---2---7-------3---2--|
|------------------------|


Fig.3
Both Guitars
1-|--------------------------------------------------------
2-|--------------------------------------------------------
3-|--------------------------------------------------------
4-|--------------------------------------------------------
5-|-2-2--------2-2--------2-2--------2-2--------2-2--------
6-|-2-2-3b4r3--2-2-3b4r3--2-2-3b4r3--2-2-3b4r3--2-2-3b4r3--
    PM.        PM.        PM.        PM.        PM.   
    
------------------------------------------------------
------------------------------------------------------
------------------------------------------------------
----------------------------------5---4---------------
-2-2---------2-2--------2-2-------3---2---2-2---------
-2-2-3b4r3---2-2-3b4r3--2-2-3b4r3---------2-2-(3b4r3--
 PM.         PM.        PM.               PM.

------------------------------------------|
------------------------------------------|
------------------------------------------|
----------------------------------5---4---|
-2-2--------2-2--------2-2--------3---2---|
-2-2-3b4r3--2-2-3b4r3--2-2-3b4r3----------|
 PM.        PM.        PM.       


Fig.4
1-|-------------------------------------------------------
2-|-------------------------------------------------------
3-|-------------------------------------------------------
4-|-------------------------------------------------------
5-|-2-2--2-2--------2--2-2--------2-2--2-2--------2--2-2--
6-|-2-2--2-2-3b4r3--2--2-2-3b4r3--2-2--2-2-3b4r3--2--2-2--
    PM.  PM.        PM . .        PM.  PM.        PM . .

---------|
---------|
---------|
-5---4---|
-3---2---|
---------|


Verse Fig.5
1-|-------------------------------------------------------
2-|-------------------------------------------------------
3-|-------------------------------------------------------
4-|-------------------------------------------------------
5-|-2-2--2-2--------2--2-2--------2-2--2-2--------2--2-2--
6-|-2-2--2-2-3b4r3--2--2-2-3b4r3--2-2--2-2-3b4r3--2--2-2--
    PM.  PM.        PM . .        PM.  PM.        PM . .

---------|
---------|
---------|
-5---4---|
-3---2---| x2
---------|

|----------------------------------------------------------
|----------------------------------------------------------
|----------------------------------------------------------
|----------------------------------------------------------
|-2-2--2-2--------2--2-2--------2-2--2-2--------2--2-2-----
|-2-2--2-2-3b4r3--2--2-2-3b4r3--2-2--2-2-3b4r3--2--2-2-/14-
  PM.  PM.        PM . .        PM.  PM.        PM . .

----------------------------------------------------------|
----------------------------------------------------------|
----------------------------------------------------------|
------------------------------------------------------5-4-|
-2-2--2-2--------2--2-2--------2-2--2-2--------2--2-2-3-2-|
-2-2--2-2-3b4r3--2--2-2-3b4r3--2-2--2-2-3b4r3--2--2-2-----|
 PM.  PM.        PM . .        PM.  PM.        PM . .

|-----------|     |---------|
|-----------|     |---------|
|-----------|     |---------|
|-----------|     |-5---4---|
|-2-2-------| x14 |-3---2---|
|-2-2-3b4r3-|     |---------|
  PM.    

|---------------------------------------------------------|
|---------------------------------------------------------|
|---------------------------------------------------------|
|-----------------------------------------------------5-4-|
|-2-2--2-2--------2--2-2--------2-2--2-2--------2-2-2-3-2-|
|-2-2--2-2-3b4r3--2--2-2-3b4r3--2-2--2-2-3b4r3--2-2-2-----|
  PM.  PM.        PM . .        PM.  PM.        PM. .


Chorus 1 Fig.6
1-|------------------------------------------------------
2-|------------------------------------------------------
3-|-------------------------------------------7--7/9-9\7-
4-|-------2-2-0------7-7------5-5--5--4--2-7-------------
5-|-----2-2-2------5-5-5----5-5-5--3--2--0-5--5--5/7-7\5-
6-|-0h2----------0--------5------------------------------

----------------------------------------------|
----------------------------------------------|
----------------------------------------------|
-------2-2-0------7-7-7------5-5-5------7-7-7-|
-----2-2-2------5-5-5-5----5-5-5-5----7-7-7-7-|
-0h2----------0----------5----------7---------|


Chorus 2 Fig.7
1-|------------------------------------------------------
2-|------------------------------------------------------
3-|-------------------------------------------7--7/9-9\7-
4-|-------2-2-0------7-7------5-5--5--4--2-7-------------
5-|-----2-2-2------5-5-5----5-5-5--3--2--0-5--5--5/7-7\5-
6-|-0h2----------0--------5------------------------------
[ Tab from: http://www.guitartabs.cc/tabs/m/metallica/the_unnamed_feeling_tab_ver_8.html ]
---------------------------------------------------------|
---------------------------------------------------------|
---------------------------------------------------------|
-------2-2-0------7-7-7------5-5-5------4-4-4------5-5-5-|
-----2-2-2------5-5-5-5----5-5-5-5----4-4-4-4----5-5-5-5-| 
-0h2----------0----------5----------4----------5---------|
                                                         x2
|-----------|
|-----------|
|-----------|
|-----7-7-7-|
|---7-7-7-7-|
|-7---------|

|--------------------------------------------------------
|--------------------------------------------------------
|--------------------------------------------------------
|--------------------------------------------------------
|-0-2--0-2--2-2-0--0--0--0-5--5-5-0-5-5-3--2--0-0-0--0-0-
|-0-2--0-2--2-2-0--0--0--0-5--5-5-0-5-5-2--2--2-0-0--0-0-
                           PM . .

----------------------------------------------------------
----------------------------------------------------------
----------------------------------------------------------
----------------------------------------------------------
-2-4-2-2-2-0-2--2-2-0--0--0--0-5--5-5-0-5-5-4---------4---
-2-4-2-2-2-0-2--2-2-0--0--0--0-5--5-5-0-5-5-4-4-4-4-4-4-4-
                               PM . .         PM. . .   PM 

-------------------------------------------------
-------------------------------------------------
-------------------------------------------------
-------------------------------------------------
-------4-----5---------5---------5-----7---------
-4-4-4-4-4-4-5-5-5-5-5-5-5-5-5-5-5-5-5-7-7-7-7-7-
 PM. .   PM.   PM. . .   PM. . .   PM.   PM. . . 

-------------|
-------------|
-------------|
-------------|
-7---------7-|
-7-7-7-7-7-7-|
   PM. . .


Fig.8
1-|-------------------|
2-|-------------------|
3-|-------------------|
4-|-----------5---4---|    
5-|-5-2-2-0-2-3---2---| x3
6-|-5-2-2-0-2---------|

|----------------------------------------|
|----------------------------------------|
|----------------------------------------|
|---5---4---------5---4----------5---4---|
|---3---2---2-----3---2---2-2--2-3---2---|
|-0---0---0-2---0---0---0-2-2--2---------|
  PM  PM  PM    PM  PM  PM

1-|-------------------|    |-----------|    |---------|
2-|-------------------|    |-----------|    |---------|
3-|-------------------|    |-----------|    |---------|
4-|-----------5---4---|    |-----------|    |-5---4---|
5-|-5-2-2-0-2-3---2---| x2 |-5-2-2-0-2-| x4 |-3---2---|
6-|-5-2-2-0-2---------|    |-5-2-2-0-2-|    |---------|


Fig.9
1-|---------------|
2-|---------------|
3-|---------------|
4-|---------------|
5-|-2-2-2-2-------| 
6-|-2-2-2-2-3b4r3-| x8 
    PM. . . 

|------------------------------------------
|------------------------------------------
|------------------------------------------
|------------------------------------------
|-2-2-2-2--------------2-2-2-2-------------
|-2-2-2-2-3b4r3-3b4r3--2-2-2-2-3b4r3-3b4r3-
  PM. . .              PM. . .

---------------------------------|
---------------------------------|
---------------------------------|
---------------------------------|
-2-2-2-2-------------------------|
-2-2-2-2-3b4r3-3b4r3-3b4r3-3b4r3-|
 PM. . .

1-|--------------------------------------------|
2-|--------------------------------------------|
3-|--------------------------------------------|
4-|--------------------------------------------|
5-|-2-2--------2-2--------2-2--------2-2-------|
6-|-2-2-3b4r3--2-2-3b4r3--2-2-3b4r3--2-2-3b4r3-|
    PM.        PM.        PM.        PM. 

Last Chorus' Fig.10
|--------------------------------------------------------
|--------------------------------------------------------
|--------------------------------------------------------
|--------------------------------------------------------
|-0-2--0-2--2-2-0--0--0--0-5--5-5-0-5-5-3--2--0-0-0--0-0-
|-0-2--0-2--2-2-0--0--0--0-5--5-5-0-5-5-2--2--2-0-0--0-0-
                           PM . .

----------------------------------------------------------
----------------------------------------------------------
----------------------------------------------------------
----------------------------------------------------------
-2-4-2-2-2-0-2--2-2-0--0--0--0-5--5-5-0-5-5-4---------4---
-2-4-2-2-2-0-2--2-2-0--0--0--0-5--5-5-0-5-5-4-4-4-4-4-4-4-
                               PM . .         PM. . .   PM 

---------------------------------------------------------
---------------------------------------------------------
---------------------------------------------------------
---------------------------------------------------------
-------4-5---5-7-5-4-0-2--0-2--2-2-0--0--0--0-5--5-5-0-5-
-4-4-4-4-5---5-7-5-4-0-2--0-2--2-2-0--0--0--0-5--5-5-0-5-
 PM. .                                        PM . .

---------------------------------------------------------
---------------------------------------------------------
---------------------------------------------------------
---------------------------------------------------------
-5-3--2--0-0-0--0-0-2-4-2-2-2-0-2--2-2-0--0--0--0-5--5-5-
-5-2--2--2-0-0--0-0-2-4-2-2-2-0-2--2-2-0--0--0--0-5--5-5-  
                                                  PM . .

-----------------------------------------------------------
-----------------------------------------------------------
-----------------------------------------------------------
-----------------------------------------------------------
-0-5-5-4---------4---------4-----5---------5---------5-----
-0-5-5-4-4-4-4-4-4-4-4-4-4-4-4-4-5-5-5-5-5-5-5-5-5-5-5-5-5-
         PM. . .   PM. . .   PM.   PM. . .   PM. . .   PM. 
  
-----------------------|
-----------------------|                      
-----------------------|
-----------------------|
-7---------7---------7-|
-7-7-7-7-7-7-7-7-7-7-7-|
   PM. . .   PM. . .

|------------------------------------------------------
|------------------------------------------------------
|-------------------------------------------7--7/9-9\7-
|-------2-2-0------7-7------5-5--5--4--2-7-------------
|-----2-2-2------5-5-5----5-5-5--3--2--0-5--5--5/7-7\5-
|-0h2----------0--------5------------------------------

----------------------------------------------|
----------------------------------------------|
----------------------------------------------|
-------2-2-0------7-7-7------5-5-5------7-7-7-|
-----2-2-2------5-5-5-5----5-5-5-5----7-7-7-7-|
-0h2----------0----------5----------7---------|


Ending Fig.11
1-|-----------------------------|
2-|-----------------------------|
3-|-----------------------------|
4-|-2-2-2-2-2--2-2-2-2-2--2-2-2-|
5-|-2-2-2-2-2--2-2-2-2-2--2-2-2-|
6-|-2-2-2-2-2--2-2-2-2-2--2-2-2-|
Comments