Metallica - The Unforgiven Chords & Tabs

 

The Unforgiven Chords & Tabs

Metallica Chords & Tabs

Version: 6 Type: Tab 0 ratings
1 star 2 stars 3 stars 4 stars 5 stars
comments

The Unforgiven Tab

   
The unforgiven

Riff 1
Guitarra 1
e|------------
G|-0--0--0--1-
B|--2--2--2---   x4  Hacerlo durante todo el punteo
D|---2--2--2--   
A|------------
E|------------


Guitarra 2
e|------------------|---------------|------------------|---------------
B|------------------|---------------|------------------|---------------
G|-2--4--5--5--4--2-|-2--4--5--5--2-|-2--4--5--5--4--2-|-2--4--5--5--2-
D|------------------|---------------|------------------|---------------
A|------------------|---------------|------------------|---------------
E|------------------|---------------|------------------|---------------


e|-------------------------------------|----------------------|---------------------------
B|-------------------------------------|---------5--5--5--3---|---------------------------
G|-2--4--5--5--5--5--4---------2--4--2-|-2--4--5------------4-|-4--3--1--1--3--2--1--3--2-
D|---------------------5--2--2---------|----------------------|---------------------------
A|-------------------------------------|----------------------|---------------------------
E|-------------------------------------|----------------------|---------------------------

Riff 1
Guitarra 1
e|------------
G|-0--0--0--1-
B|--2--2--2---   x2
D|---2--2--2--   
A|------------
E|------------



verso:

Am C Em D

pre coro:

C G D Am
C G Em Am

Coro: x2

Es casi igual que el intro solo cambian algunas cosas:

e|-------------------------------------|----------------------|---------------------
B|-------------------------------------|---------5--5--5--3---|---------------------
G|-2--4--5--5--5--5--4---------2--4--2-|-2--4--5------------4-|-4--3--1--1--2--4--2-
D|---------------------5--2--2---------|----------------------|---------------------
A|-------------------------------------|----------------------|---------------------
E|-------------------------------------|----------------------|---------------------

El coro se toca la primera como esta aca, y la segunde vez como el intro

luego del coro: Riff 1

Solo: 						~=Estirar

e|------------
G|-0--0--0--1-
B|--2--2--2---  x2 
D|---2--2--2--   
A|------------
E|------------

[ Tab from: http://www.guitartabs.cc/tabs/m/metallica/the_unforgiven_tab_ver_6.html ]
e|----------------------------------------------------------------------------
B|------------------------3-5-3--------9-7-5-3-2------------------------------
G|-2-4-5-7-4-5-2-4-0-2--5-------5-7--------------5-7-5------------5-----7-----
D|-----------------------------------------------------5------5-7---5-7---5-7-
A|--------------------------------------------------------5-7-----------------
E|----------------------------------------------------------------------------


e|---------------9----9-|----10--------12--------14----16----
G|-8-7-5-7-8-10----10---|-10----10--10----10--12----14-------
B|----------------------|------------------------------------
D|----------------------|------------------------------------
A|----------------------|------------------------------------
E|----------------------|------------------------------------


Esta parte va con distorsión

e|---------------------------------------------------------------------------7------9---15~-
B|-------------------------------------------------------------------14----7---7--7---9-----
G|-------------------------------------3-4-5-5-6-7-7-8-9-9-10-11--11------------------------
D|------------------------------------------------------------------------------------------
A|-------------5-4-3-------------3----------------------------------------------------------
E|-5-7-5-7-5-3-------5-7-6-5-3-5------------------------------------------------------------


e|-15~-16-14----19~-17-19-17-15-
B|-----------16-----------------
G|------------------------------
D|------------------------------
A|------------------------------
E|------------------------------


e|-12~-12-
B|--------
G|--------
D|--------
A|--------
E|--------


Esta incompleto, si alguien lo saca entero mandenlo


verso:

Am C Em D

pre coro:

C G D Am
C G Em Am

Coro: x2

Es casi igual que el intro solo cambian algunas cosas:

e|-------------------------------------|----------------------|---------------------
B|-------------------------------------|---------5--5--5--3---|---------------------
G|-2--4--5--5--5--5--4---------2--4--2-|-2--4--5------------4-|-4--3--1--1--2--4--2-
D|---------------------5--2--2---------|----------------------|---------------------
A|-------------------------------------|----------------------|---------------------
E|-------------------------------------|----------------------|---------------------

El coro se toca la primera como esta aca, y la segunde vez como el intro



alejandro_sebastian1@hotmail.com
Comments