Metallica - The Unforgiven Ii Chords & Tabs

 

The Unforgiven Ii Chords & Tabs

Metallica Chords & Tabs

Version: 1 Type: Bass Tab 0 ratings
1 star 2 stars 3 stars 4 stars 5 stars
comments

The Unforgiven Ii Bass Tab

The Unforgiven II
written by Hetfield and Ulrich
as performed on ReLoad
tab by 


tune all guitars down 1/2 step  
|-----------------|-----------------|-----------------|-----------------|
|-----------------|-----------------|-----------------|-----5-----------|
|-----------------|-----------------|-----------------|-----------------|
|-5---5-5-5/8-8-8-|-3---3-3-0---0-0-|-5---5-5-5/8-8-8\|-3-------0---0-0-|


|-----------------|-----------------|-----------------|-----------------|
|------REST-------|------REST-------|------REST-------|------REST-------|
|-----------------|-----------------|-----------------|-----------------|
|-----------------|-----------------|-----------------|-----------------|


|-----------------|-----------------|-----------------|-----------------|
|-----------------|-----------------|-----------------|-5-5-7-5---------|
|-----------------|-------------7---|---------------7-|---------7-7-5---|
|-5---5-7-8---7-5-|-3---3---0-----0-|-5---5-7-8-8-8---|---------------7-|


|-----------------|-----------------|-----------------|-----------------|
|-----------------|-----------------|-----------------|-5-5-7-5---------|
|-----------------|-------------7---|---------------7-|---------7-7-5---|
|-5---5-7-8---8-7-|-3---3---0-----0-|-5---5-7-8-8-8---|---------------7-|


|-----------------|-----------------|-----------------|-----------------|
|-----------------|-----------------|-----7-7---------|---5---5---------|
|-----------------|-----------------|-----------------|-----------7-7---|
|-5---5-7-8-8-8\--|-3---3-3-0-0-0-3-|-5-5-----8-8-8\--|-3---3---0-----3-|


|-----------------|-----------------|-----------------|-----------------|
|-----------------|-----------------|-----------------|-5-5-7-5---------|
|-----------------|-------------7---|---------------7-|---------7-7-5---|
|-5---5-7-8---7-5-|-3---3---0-----0-|-5---5-7-8-8-8---|---------------7-|


|-----------------|-----------------|-----------------|-----------------|
|-----------------|-----------------|-----------------|-5-5-7-5---------|
|-----------------|-------------7---|---------------7-|---------7-7-5---|
|-5---5-7-8---8-7-|-3---3---0-----0-|-5---5-7-8-8-8---|---------------7-|


|-----------------|-----------------|-----------------||
|-----------------|-----------------|-----------------||
|-5-5-5-5---------|-----------------|-----------------||
|---------1-1-1-1-|-3-3-3-3-1-1-1-1-|-5---------------||


|-----------------|-----------------|-----------------|-----------------|
|-----------------|-----------------|-----------------|-----------------|
|-----------------|-----------------|---5----5----5---|-5-3----3----2---|
|-5-5----5----5---|-5-3----3----3---|-3---------------|-----------------|


|-----------------|-----------------|-----------------|-----------------|
|-----------------|-----------------|-----------------|-----------------|
|-2---------------|-----------------|---5----5----5---|-5---5-3-2-3-2-0-|
|---5----5----5---|-5-3----3----3---|-3---------------|-----------------|


|-----------------|-----------------|-----------------|-----------------|
|-----------------|-----------------|-----------------|-----------------|
|-----------------|-----------------|---5----5----5---|-5-3----3----2---|
|-5-5----5----5---|-5-3----3----3---|-3---------------|-----------------|


|-----------------|-----------------|-----------------|-----------------|
|-----------------|-----------------|-----------------|-----------------|
|-2---------------|-----------------|---5----5----5---|-5---5-3-2-3-2-0-|
|---5----5----5---|-5-3----3----3---|-3---------------|-----------------|


|-----------------|-----------------|-----------------|-----------------|
|-----------------|-----------------|-----------------|-----5-----------|
|-----------------|-----------7-7---|-----------------|-------------7---|
|-5---5-7-8-8-8-8-|-3---3-3-0-----0-|-5---5-7-8---8-7-|-3-3---3-0-0---0-|


|-----------------|-----------------|-----------------|-----------------|
|-----------------|-----------------|-----------------|-5-5-7-5---------|
|-----------------|-------------7---|---------------7-|---------7-7-5---|
|-5---5-7-8---7-5-|-3---3---0-----0-|-5---5-7-8-8-8---|---------------7-|


|-----------------|-----------------|-----------------|-----------------|
|-----------------|-----------------|-----------------|-5-5-7-5---------|
|-----------------|-------------7---|---------------7-|---------7-7-5---|
|-5---5-7-8---8-7-|-3---3---0-----0-|-5---5-7-8-8-8---|---------------7-|


|-----------------|-----------------|-----------------||
|-----------------|-----------------|-----------------||
|-5-5-5-5---------|-----------------|-----------------||
|---------1-1-1-1-|-3-3-3-3-1-1-1-1-|-5---------------||


|-----------------|-----------------|-----------------|-----------------|
|-----------------|-----------------|-----------------|-----------------|
|-----------------|-----------------|---5----5----5---|-5-3----3----2---|
|-5-5----5----5---|-5-3----3----3---|-3---------------|-----------------|

[ Tab from: http://www.guitartabs.cc/tabs/m/metallica/the_unforgiven_ii_btab.html ]
|-----------------|-----------------|-----------------|-----------------|
|-----------------|-----------------|-----------------|-----------------|
|-2---------------|-----------------|---5----5----5---|-5---5-3-2-3-2-0-|
|---5----5----5---|-5-3----3----3---|-3---------------|-----------------|


|-----------------|-----------------|-----------------|-----------------|
|-----------------|-----------------|-----------------|-----------------|
|-----------------|-----------------|---5----5----5---|-5-3----3----2---|
|-5-5----5----5---|-5-3----3----3---|-3---------------|-----------------|


|-----------------|-----------------|-----------------|-----------------|
|-----------------|-----------------|-----------------|-----------------|
|-2---------------|-----------------|---5----5----5---|-5---5-3-2-3-2-0-|
|---5----5----5---|-5-3----3----3---|-3---------------|-----------------|


|-----------------|-----------------|-----------------|-----------------|
|-----------------|-----5-----------|-----------------|-----5-----------|
|-----------------|-------------7---|-----------------|-------------7---|
|-5---5-7-8-8-8-8-|-3-3---3-0-0---0-|-5-5-5-7-8-8-8-8-|-3-3---3-0-0---0-|


|-----------------|-----------------|-----------------|-----------------|
|-----------------|-----------------|-----------------|-----------------|
|-----------------|-----------------|-----------------|-----------------|
|-5-5-5-5-5-5-5-5-|-8-8-8-8-8-8-7-7-|-5-5-5-5-5-5-3-3-|-8-8-8-8-8-8-8-8-|


|-----------------|-----------------|-----------------|-----------------|
|-----------------|-----5-----------|---7-------------|---5-------------|
|-----------------|-------------7---|-----------------|-----------7-----|
|-5---5-7-8-8-8-8-|-3-3---3-0-0---0-|-5---5-7/8-8-8-8-|-3---3-3-0---0-0-|


                  |-----------------|-----------------|
                  |------REST-------|------REST-------|
                  |-----------------|-----------------|
                  |-----------------|-----------------|


|-----------------|-----------------|-----------------|-----------------|
|-----------------|-----------------|-----------------|-5-5-7-5---------|
|-----------------|-------------7---|---------------7-|---------7-7-5---|
|-5---5-7-8---7-5-|-3---3---0-----0-|-5---5-7-8-8-8---|---------------7-|


|-----------------|-----------------|-----------------||
|-----------------|-----------------|-----------------||
|-5-5-5-5---------|-----------------|-----------------||
|---------1-1-1-1-|-3-3-3-3-1-1-1-1-|-5---------------||


|-----------------|-----------------|-----------------|-----------------|
|-----------------|-----------------|-----------------|-----------------|
|-----------------|-----------------|---5----5----5---|-5-3----3----2---|
|-5-5----5----5---|-5-3----3----3---|-3---------------|-----------------|


|-----------------|-----------------|-----------------|-----------------|
|-----------------|-----------------|-----------------|-----------------|
|-2---------------|-----------------|---5----5----5---|-5---5-3-2-3-2-0-|
|---5----5----5---|-5-3----3----3---|-3---------------|-----------------|


|-----------------|-----------------|-----------------|-----------------|
|-----------------|-----------------|-----------------|-----------------|
|-----------------|-----------------|---5----5----5---|-5-3----3----2---|
|-5-5----5----5---|-5-3----3----3---|-3---------------|-----------------|


|-----------------|-----------------|-----------------|-----------------|
|-----------------|-----------------|-----------------|-----------------|
|-2---------------|-----------------|---5----5----5---|-5---5-3-2-3-2-0-|
|---5----5----5---|-5-3----3----3---|-3---------------|-----------------|


|-----------------|-----------------|-----------------|-----------------|
|-----------------|-----------------|-----------------|-----------------|
|-----------------|-----------------|---5----5----5---|-5-3----3----2---|
|-5-5----5----5---|-5-3----3----3---|-3---------------|-----------------|


|-----------------|-----------------|-----------------|-----------------|
|-----------------|-----------------|-----------------|-----------------|
|-2---------------|-----------------|---5----5----5---|-5---5-3-2-3-2-0-|
|---5----5----5---|-5-3----3----3---|-3---------------|-----------------|


|-----------------|-----------------|-----------------|-----------------|
|-----------------|-----------------|-----------------|-----------------|
|-----------------|-----------------|---5----5----5---|-5-3----3----2---|
|-5-5----5----5---|-5-3----3----3---|-3---------------|-----------------|


|-----------------|-----------------|-----------------|-----------------|
|-----------------|-----------------|-----------------|-----------------|
|-2---------------|-----------------|---5----5----5---|-5---5-3-2-3-2-0-|
|---5----5----5---|-5-3----3----3---|-3---------------|-----------------|


|-----------------|-----------------|-----------------||
|-----------------|-----------------|-----------------||
|-----------------|-5-5-------3-3---|-----------------||
|-5-5-------3-3---|-----------------|-3---------------||

====
Comments