Metallica - The Unforgiven Chords & Tabs

 

The Unforgiven Chords & Tabs

Metallica Chords & Tabs

Version: 1 Type: Bass Tab 0 ratings
1 star 2 stars 3 stars 4 stars 5 stars
comments

The Unforgiven Bass Tab

   
The Unforgiven
written by Hetfield and Ulrich
as performed on Metallica
tab by Dorothy St.Claire


The Unforgiven

INTRO

|----------------------------------------|---------------------------|
|------------====guitar====--------------|---------------------------|
|----------------------------------------|--0---2-2-3------3------3--|
|----------------------------------------|---------------------------|

|--------------------------------------------------------------------|
|-----------------------------------------------------------3-----3--|
|-3-2---------2-----------0-0-2-----0-------0---2---3----------------|
|-----3-----------0--------------------------------------------------|

|--------------------------------------------------------------------|
|-3-1----------------------------------------------------------------|
|-----2-------2-----------2-----2---0--------------------------------|
|-----------------4---------4----------------------------------------|

VERSE

It's kinda hard to get the right timing with this, so I did this part like
every other person did it, with a Chord sheet. Easier for everyone.


|---|     |---|    |---|    |---|    |---|
|---|     |---|    |---|    |---|    |---|
|---|     |---|    |-5-|    |---|    |-3-|
|-5-| A   |-0-| E  |---| D  |-3-| G  |---| C


A                     E
New blood joins this earth

D               A
And quickly he's subdued

                         E
Through constant pain disgrace

D                      A
The young boy learns their rules

                          E
With time the child draws in
[ Tab from: http://www.guitartabs.cc/tabs/m/metallica/the_unforgiven_btab.html ]
D                 A
This whipping boy done a wrong

                     E
Deprived of all his thoughts

D                   A
the young man struggles on and on

             C            G
He knows a vow unto his own

C               G
That never from this day

     C                 G    E
His will they'll take away.CHORUS
|--------------------------------------------------------------------|
|--------------------------------------------------------------------|
|--------0---2---3-------3------3---3-2---------2-----------0-0-2----|
|---------------------------------------3-----------0----------------|


|--------------------------------------------------------------------|
|-------------------------3-----3---3-1------------------------------|
|-0-------0---2---3---------------------2-------2-----------2---0-2--|
|---------------------------------------------------4---------4------|

|--------------------------------------------------------------------|
|--------------------------------------------------------------------|
|-0-------0---2---3-------3-----3---3-2---------2-----------0-0-2----|
|---------------------------------------3-----------0----------------|


|--------------------------------------------------------------------|
|-------------------------3-----3---3-1------------------------------|
|-0-------0---2---3---------------------2-------2-----------2---0-2--|
|---------------------------------------------------4---------4------|

|---------------------------------|
|---------------------------------|
|-0-------------------------------|
|---------------------------------|

====
Comments