Metallica - The Small Hours Chords & Tabs

 

The Small Hours Chords & Tabs

Metallica Chords & Tabs

Version: 4 Type: Tab 0 ratings
1 star 2 stars 3 stars 4 stars 5 stars
comments

The Small Hours Tab

   
----------------------------------------------------------------------------
			The Small Hours - Metallica
----------------------------------------------------------------------------

Tabbed by: Braden L.
Email: bradeo9009@hotmail.com

Tuning: Low to high, CGCFAD. Correct me if Im wrong
Intro:
F|---0-------0-------0------|-------0-------0-------0--|
A|-------6-------6-------6--|---4-------4-------4------|
D|-8---8---8---8---8---8----|-7---7---7---7---7---7----|
C|--------------------------|--------------------------|
G|-----------------------x2-|-----------------------x2-|
C|--------------------------|--------------------------|

Main Riff:
F|-----------------------|-----------|
A|-----------------------|-----------|
D|-----------------------|-----------|
C|-----------------------|-----------|
G|--0-0-2h3-2h3-0-0-3----|-3-2--2-1--|
C|--0-0-2h3-2h3-0-0-3-x3-|-3-2--2-1--|
PM  . .         . .        

Play main riff 4x during Verse, Then:

e|-----------------------------------|
B|-----------------------------------|
G|-----------------------------------|
D|--5-------3---1---0----------------|
A|--5-------3---1---0----------------|
E|--5-------3---1---0----------------|
Main Riff x2

F|-------------------------------|
A|-------------------------------|
D|-------------------------------|
C|-------------------------------|
G|--0-0-0-----0-3---0---0----3~--|
C|--0-0-0---5---------5---5--3~--|
PM  . .
[ Tab from: http://www.guitartabs.cc/tabs/m/metallica/the_small_hours_tab_ver_4.html ]
F|---------------------------------|
A|---------------------------------|
D|---------------------------------|
C|-----------------------7--7--7~--|
G|--0-0-0-----0-3---0----5--5--5~--|
C|--0-0-0---5---------5------------|
PM  . .                     .

Then play Intro with this:

F|-------------------------|
A|-------------------------|
D|-------------------------|
C|--0------1------3--1--0--|
G|--0------1------3--1--0--|
C|--0------1------3--1--0--|

Rhythm for the Solo
F|------------------------------------------------------------|
A|------------------------------------------------------------|
D|------------------------------------------------------------|
C|------------------------------------------------------------|
G|---------------------------------------------6-----------8--|
C|-0---0-0-0----0-0-0----0-0-0----0-0-0----0-0-6----0--0-0-8--|

F|------------------------------------------------------------|
A|------------------------------------------------------------|
D|------------------------------------------------------------|
C|------------------------------------------------------------|
G|---------------------------------------------7-----------9--|
C|-0---0-0-0----0-0-0----0-0-0----0-0-0----0-0-7----0--0-0-9--|

F|------------------------------------------------------------|--------|
A|------------------------------------------------------------|--------|
D|------------------------------------------------------------|--------|
C|------------------------------------------------------------|--------|
G|---------------------------------------------9-----------10-|-----10-|
C|-0---0-0-0----0-0-0----0-0-0----0-0-0----0-0-9----0--0-0-10-|-0-0-10-|

Then end the song off with the intro.

| /  slide up
| \  slide down
| h  hammer-on
| p  pull-off
| ~  vibrato
| +  harmonic
| x  Mute note
============================================================================
Comments