Metallica - The Outlaw Torn Chords & Tabs

 

The Outlaw Torn Chords & Tabs

Metallica Chords & Tabs

Version: 3 Type: Tab 0 ratings
1 star 2 stars 3 stars 4 stars 5 stars
comments

The Outlaw Torn Tab

   
This is my first posting.  I am pretty sure it is correct.  If you see any
mistakes please e-mail me at Bdog6@hotmail.com.

legend
h-hammer on
p-Pull off
/-slide up
\-slide down
~-vibrato
^-bend

(dist. tone w/wah as filter)
Eb----------*--------|---------------------------------------------------|
Bb---------12--------|----12----12------12----12--12--12--12------14b____|
Gb-12--12--12--------|----12----12------12----12--12--12--12--14--14b____|
Db-12--12--12--------|---------------------------------------------------|
Ab-------------------|---------------------------------------------------|
Eb-------------------|---------------------------------------------------|
*Trem. pick

    1/2              1/2          1/2    1/2            1/2
Eb-----------------------------------------------------------|
Bb__14r-------------------------------------------------14b--|
Gb__14r--------14___(14b)---14___(14b)---14b-----14-----14b--|
Db-----------------------------------------------------------|
Ab-----------------------------------------------------------|
Eb-----------------------------------------------------------|
[ Tab from: http://www.guitartabs.cc/tabs/m/metallica/the_outlaw_torn_tab_ver_3.html ]
wide vib. ~~~~~~~~~~  ~~~~~~~~~~  ~~~~~  ~~~~~   ~~~~~~~~~~
Eb--------------------------------------------------------|*-------|-------|
Bb--------------------------------------------------------|*-------|-------|
Gb-12-----------------------------------------------------|*-------|-------|
Db------14---------14----------14-----14-----14-----------|*-------|-------|
Ab--------------------------------------------------------|*-------|-------|
Eb--------------------------------------------------------|*-------|-------|
*(w/trem. bar and effects. ad lib next 2 bars)

                   H~~~~                 H~~~~     H  H~~~~  H  H~~~~  H~~~~   H~~~~
Eb------------------------------------------------0^14^17---0^14^17----------14^17--|
Bb-------------------------------------------------------------------15^17----------|
Gb---------------12^14-----------------12^14----------------------------------------|
Db--------12^14-----------------12^14-----------------------------------------------|
Ab-12^14-----------------12^14------------------------------------------------------|
Eb----------------------------------------------------------------------------------|
     H      H              H      H

     H~~~~ full  ~~~~ full 1 1/2   ~~~~  1 1/2    1 1/2
Eb---------17b--17----17b--17b----17-----17br/19--19br/22--|
Bb-15^17---------------------------------------------------|
Gb---------------------------------------------------------|
Db---------------------------------------------------------|
Ab---------------------------------------------------------|
Eb---------------------------------------------------------|

There you go...Good luck and Keep Rockin
Comments