Metallica - The Memory Remains Chords & Tabs

 

The Memory Remains Chords & Tabs

Metallica Chords & Tabs

Version: 2 Type: Bass Tab 0 ratings
1 star 2 stars 3 stars 4 stars 5 stars
comments

The Memory Remains Bass Tab

   
Song: The Memory Remains
Band: Metallica
Album: ReLoad

Correction By Eros Fratini (e-r-o-s@libero.it)
Original Tab by Russell Crockett

Tune down 1/2 step

------------------

Intro:

Fortune fame, mirror vains, gone insane, but the memory remains...

Gb:--------------------------------------------------------------------
Db:--------------------------------------------------------------------
Ab:--------7------------7--------7-------------/5--------7------------7
Eb:--0--0--0---0---0--3/---0--0--0--0---0--3--0----0--0--0--0---0-3-0--

Gb:----------------------------------------:
Db:----------------------------------------:
Ab:--------2--2-5--7-----7-7-7-5\4/5-7-5---:
Eb:-3--3-3---------0---------------------7-: end Intro

Verse:

Gb:--------------------------------------------------------------------
Db:--------------------------------------------------------------------
Ab:--------7-----------/7-------7-----------/5--------7-----------/7---
Eb:--0--0--0---0--0-3-0--0--0-0-0---0--0-3-0----0--0--0--0---0-3-0-----

Gb:--------------------------------------------------------------------
Db:--------------------------------------------------------------------
Ab:--------2--2-2--------7-----------/7-----/7-------------5h7-------/7
Eb:-3--3-3---------0--0--0---0--0-3-0----0-0---0--0--0-5h7----0-0-0-0--

Gb:-----------------------------------------------------:
Db:-----------------------------------------------------:
Ab:------------/7---------2--2-5-7----5-7-5\4/5-7-5-----:
Eb:-0--0--0-3-0----3--3-3--------0--------------7-5-7\3-: end Verse

Fig.1 (don't play it now, but in Chorus structure):

Gb:----------------------------------------------------------:
Db:----------------------------------------------------------:
Ab:-5-7-----7------5-7-----7------5-7-----7-------5-----5----:
Eb:-0-0-0-0-0--0-0-0-0-0-0-0--0-0-0-0-0-0-0---0-0---3-3---3-3:end Fig.1

Chorus Structure:

Fig.1 x 1 +
(1st chorus):
Gb:------------------------------------------------ -------------------
Db:------------------------------------------------ -------------------
Ab:-5-7-----7------5-7-----7------5-7-----7--5----- -------7-----------
Eb:-0-0-0-0-0--0-0-0-0-0-0-0--0-0-0-0-0-0-0------1- -0--0--0--0---0-3-0
[ Tab from: http://www.guitartabs.cc/tabs/m/metallica/the_memory_remains_btab_ver_2.html ]
Gb:--------------------------------------------------------------------
Db:--------------------------------------------------------------------
Ab:-/7-------7----------------5-5-5--------7-----------/7-------2--2-5-
Eb:----0--0--0---0--0---0-3-0--------0--0--0---0--0-3-0----3--3--------

Gb:--------------------------:
Db:--------------------------:
Ab:-7------7-7-7-5\4/5\4/5-7-:
Eb:-0------------------------: end 1st Chorus

(2nd chorus):
Gb:--------------------10--------------------12-12--------:
Db:----------------10------10----------12-12-------12-12\-:
Ab:-5-7-----7--5/8------------/10--10---------------------:
Eb:-0-0-0-0-0---------------------------------------------:end 2nd ch.

End Chorus structure.
After 2nd Chorus play it:

Bridge:

Gb:-------------------------------------------------:
Db:----------------------------------5--------7---4-:
Ab:-------7--7\2--2-2-2--2h3p2---------2h3-5----2---:
Eb:-0--0--0--------------------3--3-----------------: x 4  end Bridge

Repeat Fig.1 x 2, then:
 
Gb:-----------------:     :-------------:
Db:-----------------:     :-------------:
Ab:-5-------7-5-5-5-:     :-5-----5-----:
Eb:-0-7-5-0---------: x 3 :---3-3---3-3-:

Gb:-----------------------------------------------------:
Db:-----------------------------------------------------:
Ab:-5-7-----7--5-5---5-7-----7--7-7-5---5-7---7-5-------:
Eb:-0-0-0-0-0--------0-0-0-0-0----------0-0-0-----7-0-1-:

Gb:-------------------------------------------------:
Db:-------------------------------------------------:
Ab:-------------------------------------------------:
Eb:-3-3-3-3-3-3-3-3-3-3-3-3-3-3-3-3-3-3-3-3-3-3-3-3-:

Presolo:

Gb:--------------------------------------------------------------------
Db:--------------------------------------------------------------------
Ab:--------7-----------/7-------7-----------/5--------7-----------/7---
Eb:--0--0--0---0--0-3-0--0--0-0-0---0--0-3-0----0--0--0--0---0-3-0-----


Gb:---------------:
Db:---------------:
Ab:--------7------:
Eb:--0--0--0--1-1-: end Presolo

Guitar Solo:

Gb:--------------------------------------------------------------------
Db:--------------------------------------7-5---------------------------
Ab:--------7-----------/7-------7--------7-5------5--7--------7--------
Eb:--0--0--0---0--0-3-0--0--0-0-0---0--0------5h7----0--0--0--0-0-0--0-

Gb:-------------------9-------------10-10--------------12-----:
Db:---------------------9-----10-10-------10-10-----12----12\-:
Ab:--------7-----/7-------/8--------------------10------------:
Eb:-0--0-3-0--0-0-0-------------------------------------------:end Solo

Repeat Bridge some times.

-------------------------

I hope you like it.
Comments