Metallica - The House Jack Built Chords & Tabs

 

The House Jack Built Chords & Tabs

Metallica Chords & Tabs

Version: 1 Type: Tab 0 ratings
1 star 2 stars 3 stars 4 stars 5 stars
comments

The House Jack Built Tab

Metallica    The House Jack Builds
AAAAAAAAAAAAAAAAAAAAAAAAAAAAAAAAAAAAAAAAAAAAAAAAAAAAAAAAAAAAAAAAAAAAAAAAAAAAAAA
Intro:      Tune Guitars down 1/2 step
|----------------|---------|-------------------------|
|.--------------.|.-------.|-------------------------|
|----------------|--3/5--7-|---3/5--7--10--12--5--7--|
|--------3-----5-|---------|-------------------------|
|.-----3-----5--.|.-------.|-------------------------|
|---1/----3------|--Fill1--|--Fill2(Before Entrance)-|
    sl.      Open door so I walk inside...........
[ Tab from: http://www.guitartabs.cc/tabs/m/metallica/the_house_jack_built_tab.html ]
Entrance:                   Guitar1:           Fill 2(3rd time)
|--------------------------|-------------------------------------------|
|--------------------------|.------h-p---^----------------------------.|
|--------------------------|---5--3-5-3--2-----------------------------|
|---3--3--3--3--3--3--3--2-|------------1/2----------------------------|
|---3--3--3--3--3--3--3--2-|.-----------------------------------------.|
|---1--1--1--1--1--1--1--0-|-----bend up and back down-----------------|

Fill 2:Guitar1              Fill 2:Guitar2
|--------------------------|----------------|
|-------2--4-----4---2-----|----------------|
|---2/3------3/5---3---2---|-----5----------|
|--------------------------|--5--5--2-------|
|--------------------------|--5--3--2-------|
|--------------------------|--3-----0-------|
Comments