Metallica - The God That Failed Chords & Tabs

 

The God That Failed Chords & Tabs

Metallica Chords & Tabs

Version: 3 Type: Bass Tab 0 ratings
1 star 2 stars 3 stars 4 stars 5 stars
comments

The God That Failed Bass Tab

Standard Tuning (EADG)

Intro
------------------------------------------|
------------------------------------------|
------------------------------------------|
3-3-0-0-0-7-0-0-0-0-3-0-0-7-0-0-3-0-0-5-0-|

------------------------------------------|
------------------------------------------|
----------5-5-7---------------------------|
3-3-0-0-0-------0-0-3-0-0-7-0-0-3-0-0-5-0-|

Verse
--------------------------------------------------------|
--------------------------------------------------------|
--------------------------------------------------------|
1-0-0-0--1-0-0-0--1-0-0-3-0-1-0-0-0--1-0-0-0--1-0-0-3-0-|
[ Tab from: http://www.guitartabs.cc/tabs/m/metallica/the_god_that_failed_btab_ver_3.html ]
-------------------------------------------------------------------------|
-------------------------------------------------------------------------|
-------------------------------------------------------------------------|
1-1-1-1--0-1-1-1--0-1-1-0-3-0-1-1-1--0-1-1-1--0-1-1-1--0-1-1-0-3-0-1-1-1-|

Chorus
-----------------   -------------------------------------------------|
-----------------   -------------------------------------------------|
-----------------   -------------------------------------------------|
3-3-0-0-0-7-0-0-0   0-0--0-0-0--0-0-0--3--3--3--3--7-7--7-7-7--7-7-7-|

-------------------------------------------------------------------------|
-------------------------------------------------------------------------|
-------------------------------------------------------------------------|
3--3--3--3--0-0--0-0-0--0-0-0--3--3--3--3--7-7--7-7-7--7-7-7--3--3--3--3-|

That should be enough for you to get the general idea of the song ...
Any questions or anything then email me at ashone2@pobox.une.edu.au
Cheers.
Comments