Metallica - Sweet Amber Chords & Tabs

 

Sweet Amber Chords & Tabs

Metallica Chords & Tabs

Version: 6 Type: Tab 0 ratings
1 star 2 stars 3 stars 4 stars 5 stars
comments

Sweet Amber Tab

Album: St. Anger
Tuning: Dropped C Tuning
Notes: These are good tabs but sum of the slides could as well have been bends...
I guess it's up to u how u interpret them... just warning ya... The tab looks
good to me and the song sounds like it's only got a few riffs which r just
repeated or varied.... n e way... Go Heavy Or Go Home!!! and as usual... have fun!!!

Intro (Clean Guitar)
D|-----------------------------|
A|-----------------------------|
F|-------------------------17b-|
C|-15/17-17-----15/17------17b-|
G|-15/17-17-----15/17----------|
C|-0------------0--------0-----|

Intro (heavy)....this part x3..............|
D|---------|-------------------------------|-----------------------------|
A|---------|-------------------------------|-----------------------------|
F|---------|-------------------------------|-----------------------------|
C|-X--X-X--|---5\7-7---------5\7-----------|----5\7-7--------------------|
G|-X--X-X--|---3\5-5---------3\5-----8b-8/-|----3\5-5--------------------|
C|-X--X-X--|-0---------0-000-------0-------|-0---------0-000-0-0-000-0-0-|

Verse (guitar 1)
D|----------------------------------|
A|----------------------------------|
F|----------------------------------|
C|-5/7-7----------5/7---------------|
G|-3/5-5----------3/5-----8b--------|
C|--------0-000--------0------0-000-|
(Guitar 2)
D|-----------------------------------|
A|-----------------------------------|
F|-----------------------------------|
C|-------------------------15b-------|
G|-15/17-17--------15/17-------------|
C|-----------0-000-------0-----0-000-|

This part has an effect in the background like a heavy wah or sumthin...
D|---------------|
A|---------------|
F|-7----5---3--2-|
C|-7----5---2--2-|
G|-5----3---1--0-|
C|---------------|
Ohh and she holds my hand...
[ Tab from: http://www.guitartabs.cc/tabs/m/metallica/sweet_amber_tab_ver_6.html ]
D|-----------------------------|
A|-----------------------------|
F|-----------------------------|
C|-0-xx-0-xx-0-xx-3-3-3-3--2---|
G|-0-00-0-00-0-00-3-3-3-3--2---|
C|-0-00-0-00-0-00-3-3-3-3--2---|
     ..   ..   ..

D|------------------|
A|------------------|
F|-7---5----4--3--2-|
C|-7---5----4--2--2-|
G|-5---3----2--1--0-|
C|------------------|
Ohh sweet amber...
          
D|--------------------------------|
A|--------------------------------|
F|--------------------------------|
C|--------------------------------|
G|-0-0-0-3--5--0-0-4\5-/4-0-------|
C|-0-0-0-3--5--0-0-4\5-/4-0---000-|
           How sweet are you?

The Bridge - Riff 1
D|---------------------------------------------------------------|
A|---------------------------------------------------------------|
F|-7--------7--------7-------10-9--------------------------------|
C|---------------------------------9-------9-------14------15-14-|
G|-5--------5--------5-------8--7--7-------7-------12------13-12-|
C|---00000----00000----00000---------00000---00000----0000-------|
She holds the pen that spells the end...

The Bridge - Riff 2
D|-----------------------------------------------------------|
A|-----------------------------------------------------------|
F|-----------------------------------------------------------|
C|-----------------------------------------------------------|
G|-0-0-2-0-0-0-2-0-0-0-2-0-3--2--2-2-3-2-2-2-3-2-2-2-7--8--7-|
C|-0-0-2-0-0-0-2-0-0-0-2-0-3--2--2-2-3-2-2-2-3-2-2-2-7--8--7-|

Finish with...
D|---------------------|
A|---------------------|
F|---------------------|
C|-6--5--3--6--5--3--0-|
G|-6--5--3--6--5--3--0-|
C|-6--5--3--6--5--3--0-|
Never as sweet as it seems

The usual... ne comments etc... just email apocalypze_13@hotmail.com...
thanx for looking at the tab... WHIPLASH!!! \m/ 4eva
Comments