Metallica - Sweet Amber Chords & Tabs

 

Sweet Amber Chords & Tabs

Metallica Chords & Tabs

Version: 4 Type: Tab 0 ratings
1 star 2 stars 3 stars 4 stars 5 stars
comments

Sweet Amber Tab

Clean Intro
D|-----------------------------|
A|-----------------------------|
F|-----------------------------|
C|-------------------------17b-|
G|-15/17-17-----15/17----------|
C|-0------------0--------0--0--|
[ Tab from: http://www.guitartabs.cc/tabs/m/metallica/sweet_amber_tab_ver_4.html ]
                       Repeat 3x
(Heavy Intro)................................
D|---------|-------------------------------|-----------------------------|
A|---------|-------------------------------|-----------------------------|
F|---------|-------------------------------|-----------------------------|
C|-X--X-X--|---5/7-7---------5/7-----------|----5-7-7--------------------|
G|-X--X-X--|---3/5-5---------3/5-----8b-8--|----3/5-5--------------------|
C|-X--X-X--|-0---------0-000-------0-------|-0---------0-000-0-0-000-0-0-|

Verse (Kirk)
D|----------------------------------|
A|----------------------------------|
F|----------------------------------|
C|-5/7-7----------5/7---------------|
G|-3/5-5----------3/5-----8b--------|
C|--------0-000--------0------0-000-|

Verse(James)
D|-----------------------------------|
A|-----------------------------------|
F|-----------------------------------|
C|-------------------------15b-------|
G|-15/17-17--------15/17-------------|
C|-----------0-000-------0-----0-000-|
_____________________________________________________________________________
Tabbed by Trevor Cox

More to come!  I'm doing this all by memory, so once i get my guitar
back i will have the rest of the song!
Comments