Metallica - Stone Dead Forever Chords & Tabs

 

Stone Dead Forever Chords & Tabs

Metallica Chords & Tabs

Version: 1 Type: Tab 0 ratings
1 star 2 stars 3 stars 4 stars 5 stars
comments

Stone Dead Forever Tab

Stone Dead Forever
written by: Kilmster, Clarke, Taylor
as performed by Metallica
on the Hero of the Day single
tab by Phil Boyle; ibzrg470@apk.net


tune all guitars down 1/2 step

bass intro

1)
Gb--9---7---5-------2---9
Db--9---7---5---5---2---9
Ab--7---5---3---5---0---7
Eb--0-----------3-------0

guitar intro

2)
Gb--9-7/9--9-7/9--9-7/9-----2--9-7/9--9-7/9--9-7/9--5--4
Db--9-7/9--9-7/9--9-7/9--5--2--9-7/9--9-7/9--9-7/9--5--4
Ab--7-5/7--7-5/7--7-5/7--5--0--7-5/7--7-5/7--7-5/7--3--2
Eb-----------------------3------------------------------
[ Tab from: http://www.guitartabs.cc/tabs/m/metallica/stone_dead_forever_tab.html ]
     pm      .      .            .      .      .

Can't you see me

3)
Gb---------------------------------------
Db----7---7---7---7---9---9---9---9--5--4
Ab----7---7---7---7---9---9---9---9--5--4
Eb--5---5---5---5---7---7---7---7----3--2

4)
Gb---------------------------------------------
Db----7---7---7---7---9---9---9---9--5--4--3--2
Ab----7---7---7---7---9---9---9---9--5--4--3--2
Eb--5---5---5---5---7---7---7---7----3--2--1--0

Right there on your own.............Stone Dead Forever!!!

5)
Gb--------2--5--7
Db--2--5--2--5--7  twice then to intro riff
Ab--2--5--0--3--5
Eb--0--3---------

solo riff ====
Comments