Metallica - St Anger Chords & Tabs

 

St Anger Chords & Tabs

Metallica Chords & Tabs

Version: 8 Type: Tab 0 ratings
1 star 2 stars 3 stars 4 stars 5 stars
comments

St Anger Tab

#-----------------------------PLEASE NOTE-------------------------------------#
#This OLGA file is the author's own work and represents their interpretation  #
#of the song. You may only use this file for private study, scholarship, or   #
#research. Remember to view this file in Courier, or some other monospaced    #
#font. See http://www.olga.net/faq/ for more information.                     #
#-----------------------------------------------------------------------------#

Metallica
album: st. anger
song: st. anger

transcribed by Rudy Guzman

guzman_84@hotmail.com


   . = palm mute
   / = slide up
   \ = slide down
   ~ = vibrato
   h = hammer on
   p = pull off
  fb = full bend
  hb = half bend
 fbr = full bend then release
 hbr = half bend then release
(17) = ghost note


tune down 3 steps 
           
Eb|-------------------------------------------------------|
Bb|-------------------------------------------------------|
F#|-------------------------------------------------------|
C#|-------------------------------------------------------|
G#|-x-x--x-x--x-x--x-x--x-x--x-x--x-x--x-x--x-x--x-x--x-x-|
C#|-x-x--x-x--x-x--x-x--x-x--x-x--x-x--x-x--x-x--x-x--x-x-|

Eb|-----------------------------------------------------------|
Bb|-----------------------------------------------------------|
F#|-----------------------------------------------------------|
C#|-----------------------------------------------------------|
G#|-----------------------------x-x--x-x--x-x--x-x--x-x--x-x--|
C#|-3-1-0--2-1-0--1-0-0--3-1-0--x-x--x-x--x-x--x-x--x-x--x-x--|


Eb|---------------------------------------------|
Bb|---------------------------------------------|
F#|---------------------------------------------|
C#|---------------------------------------------|
G#|---------------x-x--x-x--x-x--x-x--x-x--x-x--|
C#|-3-1-0--2-1-0--x-x--x-x--x-x--x-x--x-x--x-x--|


Eb|---------------------------------------------|
Bb|---------------------------------------------|
F#|---------------------------------------------|
C#|---------------------------------------------|
G#|---------------x-x--x-x--x-x--x-x--x-x--x-x--|
C#|-3-1-0--2-1-0--x-x--x-x--x-x--x-x--x-x--x-x--|

Eb|---------------------------------------------|
Bb|---------------------------------------------|
F#|---------------------------------------------|
C#|------------------------------------11-11-11-|
G#|-----------------------------10-9-8----------|
C#|-3-1-0--2-1-0--1-0-0--3-1-0------------------|

Eb|--------------------------------------|
Bb|--------------------------------------|
F#|--------------------------------------|
C#|-----------------------------11-11-11-|
G#|-----------------------------9--9--9--|
C#|-3-1-0--2-1-0--1-0-0--3-1-0-----------|

Eb|------------------------------------|
Bb|------------------------------------|
F#|------------------------------------|
C#|---------------------------11-11-11-|
G#|---------------------------9--9--9--|
C#|-0-000-000-000-000-000-000----------|


Eb|-----------------------------------|
Bb|-----------------------------------|
F#|-----------------------------------|
C#|-----------------------------------|
G#|-----------------------------------|
C#|-3-1-0--2-1-0--1-0-0--3-1-0--2-0-0-|

verse
Eb|--------------------------------------------------------------------------------|
Bb|-------8----8---------6---------4------------8------8--------6---------4--------|
F#|-----8--------8---------6---------4------------8------8--------6---------4------|
C#|---8------8---------6---------4-----4/8----8------8--------6---------4------4/8-|
G#|-6----------------4---------2------------6---------------4---------2------------|
C#|--------------------------------------------------------------------------------|

Eb|-----------------------------------------|
Bb|------8------8--------6---------4--------|
F#|--------8------8--------6---------4------|
C#|----8------8--------6---------4------4/8-|
G#|--6---------------4---------2------------|
C#|-----------------------------------------|

Gt1
Eb|-------------------------------------------------------------------------------|
Bb|-------------------------------------------------------------------------------|
F#|-------------------------------------------------------------------------------|
C#|-8-8-8-8-8-8-8-8-8-8-8-8-8-8-8--11-11-11-11-11-11-11-11-11-9-9-9-9-9-9-9-9-9-9-|
G#|-6-6-6-6-6-6-6-6-6-6-6-6-6-6-6--9--9--9--9--9--9--9--9--9--7-7-7-7-7-7-7-7-7-7-|
C#|-------------------------------------------------------------------------------|
Gt2
Eb|----------------------------------------------------------------------------------------|
Bb|-16-16-16-16-16-16-16-16-16-16--13-13-13-13-13-13-13-13-13-12-12-12-12-12-12-12-11-11-12|
F#|-15-15-15-15-15-15-15-15-15-15--12-12-12-12-12-12-12-12-12-11-11-11-11-11-11-11-10-10-11|
C#|----------------------------------------------------------------------------------------|
G#|----------------------------------------------------------------------------------------|
C#|----------------------------------------------------------------------------------------|

Eb|-----------------------------------------|
Bb|-16-16-16-16-16-16-16-16-16-16-----------|
F#|-15-15-15-15-15-15-15-15-15-15-----------|
C#|-----------------------------------------|
G#|--------------------------------2-2--2-2-|
C#|--------------------------------0-0--0-0-|

Eb|--------------|
Bb|--------------|
F#|--------------|
C#|-11---9---8---|
G#|-9----7---6---|
C#|--------------|

Eb|----------------------------------------------------------------------------------------|
Bb|----------------------------------------------------------------------------------------|
F#|----------------------------------------------------------------------------------------|
C#|-13-13-13-13-13-13-13-13-13-13-13--11-11-11-11-11-11-11-11--9-9-9-9-9-9-9-9-9-9--8-8-9-9|
G#|-11-11-11-11-11-11-11-11-11-11-11--9--9--9--9--9--9--9--9---7-7-7-7-7-7-7-7-7-7--6-6-7-7|
C#|----------------------------------------------------------------------------------------|

Gt2
Eb|----------------------------------------------------------------------------------------|
Bb|-16-16-16-16-16-16-16-16-16-16--13-13-13-13-13-13-13-13-13-12-12-12-12-12-12-12-11-11-12|
F#|-15-15-15-15-15-15-15-15-15-15--12-12-12-12-12-12-12-12-12-11-11-11-11-11-11-11-10-10-11|
C#|----------------------------------------------------------------------------------------|
G#|----------------------------------------------------------------------------------------|
C#|----------------------------------------------------------------------------------------|

Eb|------------------------------------------------------|
Bb|-16-16-16-16-16-16-16-16-16-16------------------------|
F#|-15-15-15-15-15-15-15-15-15-15------------------------|
C#|------------------------------------------------------|
G#|--------------------------------2-2--2-2--2-2--2-2--2-|
C#|--------------------------------0-0--0-0--0-0--0-0--0-|
[ Tab from: http://www.guitartabs.cc/tabs/m/metallica/st_anger_tab_ver_8.html ]
Eb|-------------------------------|
Bb|-------------------------------|
F#|-------------------------------|
C#|-------------------------4-4-4-|
G#|---------3-----3---------2-2-2-|
C#|-0-0-0-0-1-0-0-1-0-0-0-0-------|

Eb|-----------------------------------|
Bb|-----------------------------------|
F#|-----------------------------------|
C#|-----------------------------4-4-4-|
G#|-----------------------------2-2-2-|
C#|-3-1-0--2-1-0--1-0-0--3-1-0--------|


Eb|-----------------------------------|
Bb|-----------------------------------|
F#|-----------------------------------|
C#|-----------------------------------|
G#|-----------------------------------|
C#|-3-1-0--2-1-0--1-0-0--3-1-0--2-0-0-|


verse
Eb|--------------------------------------------------------------------------------|
Bb|-------8----8---------6---------4------------8------8--------6---------4--------|
F#|-----8--------8---------6---------4------------8------8--------6---------4------|
C#|---8------8---------6---------4-----4/8----8------8--------6---------4------4/8-|
G#|-6----------------4---------2------------6---------------4---------2------------|
C#|--------------------------------------------------------------------------------|

Eb|-----------------------------------------|
Bb|------8------8--------6---------4--------|
F#|--------8------8--------6---------4------|
C#|----8------8--------6---------4------4/8-|
G#|--6---------------4---------2------------|
C#|-----------------------------------------|

Gt1
Eb|-------------------------------------------------------------------------------|
Bb|-------------------------------------------------------------------------------|
F#|-------------------------------------------------------------------------------|
C#|-8-8-8-8-8-8-8-8-8-8-8-8-8-8-8--11-11-11-11-11-11-11-11-11-9-9-9-9-9-9-9-9-9-9-|
G#|-6-6-6-6-6-6-6-6-6-6-6-6-6-6-6--9--9--9--9--9--9--9--9--9--7-7-7-7-7-7-7-7-7-7-|
C#|-------------------------------------------------------------------------------|
Gt2
Eb|----------------------------------------------------------------------------------------|
Bb|-16-16-16-16-16-16-16-16-16-16--13-13-13-13-13-13-13-13-13-12-12-12-12-12-12-12-11-11-12|
F#|-15-15-15-15-15-15-15-15-15-15--12-12-12-12-12-12-12-12-12-11-11-11-11-11-11-11-10-10-11|
C#|----------------------------------------------------------------------------------------|
G#|----------------------------------------------------------------------------------------|
C#|----------------------------------------------------------------------------------------|

Eb|-----------------------------------------|
Bb|-16-16-16-16-16-16-16-16-16-16-----------|
F#|-15-15-15-15-15-15-15-15-15-15-----------|
C#|-----------------------------------------|
G#|--------------------------------2-2--2-2-|
C#|--------------------------------0-0--0-0-|

Eb|--------------|
Bb|--------------|
F#|--------------|
C#|-11---9---8---|
G#|-9----7---6---|
C#|--------------|

Eb|----------------------------------------------------------------------------------------|
Bb|----------------------------------------------------------------------------------------|
F#|----------------------------------------------------------------------------------------|
C#|-13-13-13-13-13-13-13-13-13-13-13--11-11-11-11-11-11-11-11--9-9-9-9-9-9-9-9-9-9--8-8-9-9|
G#|-11-11-11-11-11-11-11-11-11-11-11--9--9--9--9--9--9--9--9---7-7-7-7-7-7-7-7-7-7--6-6-7-7|
C#|----------------------------------------------------------------------------------------|

Gt2
Eb|----------------------------------------------------------------------------------------|
Bb|-16-16-16-16-16-16-16-16-16-16--13-13-13-13-13-13-13-13-13-12-12-12-12-12-12-12-11-11-12|
F#|-15-15-15-15-15-15-15-15-15-15--12-12-12-12-12-12-12-12-12-11-11-11-11-11-11-11-10-10-11|
C#|----------------------------------------------------------------------------------------|
G#|----------------------------------------------------------------------------------------|
C#|----------------------------------------------------------------------------------------|

Eb|------------------------------------------------------|
Bb|-16-16-16-16-16-16-16-16-16-16------------------------|
F#|-15-15-15-15-15-15-15-15-15-15------------------------|
C#|------------------------------------------------------|
G#|--------------------------------2-2--2-2--2-2--2-2--2-|
C#|--------------------------------0-0--0-0--0-0--0-0--0-|

Eb|-------------------------------|
Bb|-------------------------------|
F#|-------------------------------|
C#|-------------------------4-4-4-|
G#|---------3-----3---------2-2-2-|
C#|-0-0-0-0-1-0-0-1-0-0-0-0-------|


Eb|-----------------------------------|
Bb|-----------------------------------|
F#|-----------------------------------|
C#|-----------------------------4-4-4-|
G#|-----------------------------2-2-2-|
C#|-3-1-0--2-1-0--1-0-0--3-1-0--------|


Eb|-----------------------------------|
Bb|-----------------------------------|
F#|-----------------------------------|
C#|-----------------------------------|
G#|-----------------------------------|
C#|-3-1-0--2-1-0--1-0-0--3-1-0--2-0-0-|

Eb|-----------------------------------|
Bb|-----------------------------------|
F#|-----------------------------------|
C#|-----------------------------4-4-4-|
G#|-----------------------------2-2-2-|
C#|-3-1-0--2-1-0--1-0-0--3-1-0--------|


Eb|----------------------------------------------------------------------------------------|
Bb|----------------------------------------------------------------------------------------|
F#|----------------------------------------------------------------------------------------|
C#|-13-13-13-13-13-13-13-13-13-13-13--11-11-11-11-11-11-11-11--9-9-9-9-9-9-9-9-9-9--8-8-9-9|
G#|-11-11-11-11-11-11-11-11-11-11-11--9--9--9--9--9--9--9--9---7-7-7-7-7-7-7-7-7-7--6-6-7-7|
C#|----------------------------------------------------------------------------------------|

Gt2
Eb|----------------------------------------------------------------------------------------|
Bb|-16-16-16-16-16-16-16-16-16-16--13-13-13-13-13-13-13-13-13-12-12-12-12-12-12-12-11-11-12|
F#|-15-15-15-15-15-15-15-15-15-15--12-12-12-12-12-12-12-12-12-11-11-11-11-11-11-11-10-10-11|
C#|----------------------------------------------------------------------------------------|
G#|----------------------------------------------------------------------------------------|
C#|----------------------------------------------------------------------------------------|

Eb|------------------------------------------------------|
Bb|-16-16-16-16-16-16-16-16-16-16------------------------|
F#|-15-15-15-15-15-15-15-15-15-15------------------------|
C#|------------------------------------------------------|
G#|--------------------------------2-2--2-2--2-2--2-2--2-|
C#|--------------------------------0-0--0-0--0-0--0-0--0-|

Eb|-------------------------------|
Bb|-------------------------------|
F#|-------------------------------|
C#|-------------------------4-4-4-|
G#|---------3-----3---------2-2-2-|
C#|-0-0-0-0-1-0-0-1-0-0-0-0-------|

Eb|----------|
Bb|----------|
F#|----------|
C#|----------|
G#|-2--------|
C#|-0--------|

made in hermosillo son.
Comments