Metallica - St Anger Chords & Tabs

 

St Anger Chords & Tabs

Metallica Chords & Tabs

Version: 7 Type: Tab 6 ratings
1 star 2 stars 3 stars 4 stars 5 stars
comments

St Anger Tab

   
ok this is st. anger, i noticed the other tabs were incorrect

tuning is a whole step down and then drop d
(really important to get the right tuning,  otherwise it won't even be recognizable)


______________________________                          ________________________
______________________________                          ________________________
______________________________                          ________________________
______________________________  do this 3 times         ________________________
________________________3_3_3_  and then end with this  ________________________
_0_1_2_2_1_2_0_2_1_0_1_1______                          _0_1_2_2_1_2_1_0_2______
pm .....................


then comes this

RIFF A
----------------------------------
----------------------------------
----------------------------------
---------------------------3-3-3-- times 3
-0-1-2-2-1-2-1-0-2-1-0-1-1-3-3-3--
-0-1-2-2-1-2-1-0-2-1-0-1-1--------
pm .......................

RIFF B                                          RIFF C
--------------------------------------------    ----------------------------
--------------------------------------------    ----------------------------
--------------------------------------------    ---------------------------- times 3
-------------------------------------------- x1 ----------------------------
-1-2-2-1-2-----2-----2-----2---------3-3-3--    --------2------------3-3-3--
-1-2-2-1-2-1-0-2-1-0-2-1-0-2-1-0--1-1------0    1-2-2-1-2-1-2-1-0-1-1-----0-
pm......   ....   ...................           pm.....  ............


play RIFF B one more time, then play RIFF A 8 times (continue through the double time 
feel, it's the same riff, don't let the drums distract you)

ok now it's rest time

guitar 1

riff D      Saint An - ger   round my   neck       Saint  An  - ger  round my  neck
---------------------------------         --------------------------------------
----------1----3---3-----3-------         --------1---3---3-----3---------------
--2----2---------2---------------         -2---2--------2-----------------------
---------------------------0-----         -------------------------0------------
---------------------------------         --------------------------------------
---------------------------------         --------------------------------------

guitar 2
                                           riff E
---------2------------------------------- ---------------------------------------
-3-------------3--------3--------3-----3- ---------3------------3-3-------3-----3
---2-----------------0-----0------------- -------2------2-----------0------------
-----0----------------------------------- --0-------------0----------------------
-------------------3---------1------0---- -------------------3--------1-----0----
----------------------------------------- ---------------------------------------

continue on with riff d and e 2 more times

he never gets respect
Saint Anger 'round my neck
[ Tab from: http://www.guitartabs.cc/tabs/m/metallica/st_anger_tab_ver_7.html ]
RIFF F   
----------------------------------------------------------------------------
----------------------------------------------------------------------------
--7-7-7-7-7-7-7-7-7-7-7-7-7-7-7-7-7-7-7-7-7-7-7-7--15--------14-------------
--x-x-x-x-x-x-x-x-x-x-x-x-x-x-x-x-x-x-x-x-x-x-x-x--x---------x--------------
--5-5-5-5-5-5-5-5-5-5-5-5-5-5-5-5-3-3-3-3-3-3-3-3/-13--------12-------------
----------------------------------------------------------------------------

play Riff F over the top of RIFF E for the next 4 bars

you flush it out, you flush it out
                      Saint An - ger 'round my  neck
you flush it out, you flush it out
                      He    ne  -  ver gets  respect
you flush it out, you flush it out
                      Saint An - ger 'round my  neck
you flush it out, you flush it out
                      He    ne -  ver  gets  respect


--------------------------------------------------------------
--------------------------------------------------------------
-----7---------------------------5----------------------------
-----x---------------------------x----------8-------7--------- times 2
-----5-------0--0-----0--0-------3----------7-------7---------
-------------0--0-----0--0------------------------------------
           pm....     pm...




rhy.figures for chorus

guitar 1

--10-10-10-10-10-10-10-10-10-10-10-10-10-10-10-10-8-8-8-8-8-8-8-8-/12-12-12-12-12-12-12-12
---x-x--x--x--x--x--x--x--x--x--x--x--x--x--x--x--x-x-x-x-x-x-x-x--x--x--x--x--x--x--x--x-
--7--7--7--7--7--7--7--7--7--7--7--7--7--7--7--7--5-5-5-5-5-5-5-5--9--9--9--9--9--9--9--9-
-----------------------------------------------------------------------------------------
-----------------------------------------------------------------------------------------
-----------------------------------------------------------------------------------------

guitar 2

-----------------------------------------------------------------------------------------
-----------------------------------------------------------------------------------------
--7----------------------------------------------5---------------------------------------
--x----------------------------------------------x-----------------8--------7------------
--5----------------------------------------------3-----------------7--------7------------
-----------------------------------------------------------------------------------------

#### it all -- and   no re --grets,    I   hit   the  lights on these dark sets
I     need  a  voice  to let   my   self      let my  self   go freee
#### it all    and    f#$%## no regrets, i hit the  lights on these dark  sets
medallion      noose,   i hang   my  self,  Saint anger 'round   my neck

I feel my world shake, like an earth quake
hard to see clear, is it me? , is it fear ?

I'm madly in anger with you, i'm madly in anger with you
I'm madly in anger with you, I'm madly in anger with you


----------------------------------------------------
----------------------------------------------------
---7------------------------------------------------
---x------0--0-----0--0-----0--0-----0--0-----------
---5------0--0-----0--0-----0--0-----0--0-----------
----------------------------------------------------

that's it, that's all the riffs you need to know, can sort out the rest
of the order to the c'd
Comments